  0
SECTION
  2
HEADER
  9
$ACADVER
  1
AC1015
  9
$ACADMAINTVER
 70
    20
  9
$DWGCODEPAGE
  3
ANSI_1252
  9
$INSBASE
 10
0.0
 20
0.0
 30
0.0
  9
$EXTMIN
 10
205.3536999474206
 20
229.0764780089684
 30
-0.0000000349181948
  9
$EXTMAX
 10
208.1414802234406
 20
229.5070043971145
 30
0.0000000814935746
  9
$LIMMIN
 10
0.0
 20
0.0
  9
$LIMMAX
 10
420.0
 20
297.0
  9
$ORTHOMODE
 70
     0
  9
$REGENMODE
 70
     1
  9
$FILLMODE
 70
     1
  9
$QTEXTMODE
 70
     0
  9
$MIRRTEXT
 70
     1
  9
$LTSCALE
 40
1.0
  9
$ATTMODE
 70
     1
  9
$TEXTSIZE
 40
2.5
  9
$TRACEWID
 40
1.0
  9
$TEXTSTYLE
  7
SANINDUSA
  9
$CLAYER
  8
cotas
  9
$CELTYPE
  6
ByLayer
  9
$CECOLOR
 62
   256
  9
$CELTSCALE
 40
1.0
  9
$DISPSILH
 70
     0
  9
$DIMSCALE
 40
1.0
  9
$DIMASZ
 40
2.0
  9
$DIMEXO
 40
1.0
  9
$DIMDLI
 40
1.0
  9
$DIMRND
 40
0.0
  9
$DIMDLE
 40
0.0
  9
$DIMEXE
 40
1.0
  9
$DIMTP
 40
0.0
  9
$DIMTM
 40
0.0
  9
$DIMTXT
 40
2.0
  9
$DIMCEN
 40
0.0
  9
$DIMTSZ
 40
0.0
  9
$DIMTOL
 70
     0
  9
$DIMLIM
 70
     0
  9
$DIMTIH
 70
     0
  9
$DIMTOH
 70
     0
  9
$DIMSE1
 70
     0
  9
$DIMSE2
 70
     0
  9
$DIMTAD
 70
     1
  9
$DIMZIN
 70
     8
  9
$DIMBLK
  1

  9
$DIMASO
 70
     1
  9
$DIMSHO
 70
     1
  9
$DIMPOST
  1

  9
$DIMAPOST
  1

  9
$DIMALT
 70
     0
  9
$DIMALTD
 70
     3
  9
$DIMALTF
 40
0.03937007874016
  9
$DIMLFAC
 40
1.0
  9
$DIMTOFL
 70
     1
  9
$DIMTVP
 40
0.0
  9
$DIMTIX
 70
     0
  9
$DIMSOXD
 70
     0
  9
$DIMSAH
 70
     0
  9
$DIMBLK1
  1

  9
$DIMBLK2
  1

  9
$DIMSTYLE
  2
SANINDUSA
  9
$DIMCLRD
 70
   256
  9
$DIMCLRE
 70
   256
  9
$DIMCLRT
 70
   256
  9
$DIMTFAC
 40
1.0
  9
$DIMGAP
 40
1.0
  9
$DIMJUST
 70
     0
  9
$DIMSD1
 70
     0
  9
$DIMSD2
 70
     0
  9
$DIMTOLJ
 70
     0
  9
$DIMTZIN
 70
     8
  9
$DIMALTZ
 70
     0
  9
$DIMALTTZ
 70
     0
  9
$DIMUPT
 70
     0
  9
$DIMDEC
 70
     1
  9
$DIMTDEC
 70
     1
  9
$DIMALTU
 70
     2
  9
$DIMALTTD
 70
     3
  9
$DIMTXSTY
  7
SANINDUSA
  9
$DIMAUNIT
 70
     0
  9
$DIMADEC
 70
     1
  9
$DIMALTRND
 40
0.0
  9
$DIMAZIN
 70
     0
  9
$DIMDSEP
 70
    44
  9
$DIMATFIT
 70
     3
  9
$DIMFRAC
 70
     0
  9
$DIMLDRBLK
  1

  9
$DIMLUNIT
 70
     2
  9
$DIMLWD
 70
    -1
  9
$DIMLWE
 70
    -1
  9
$DIMTMOVE
 70
     0
  9
$LUNITS
 70
     2
  9
$LUPREC
 70
     4
  9
$SKETCHINC
 40
1.0
  9
$FILLETRAD
 40
0.1
  9
$AUNITS
 70
     0
  9
$AUPREC
 70
     0
  9
$MENU
  1
.
  9
$ELEVATION
 40
0.0
  9
$PELEVATION
 40
0.0
  9
$THICKNESS
 40
0.0
  9
$LIMCHECK
 70
     0
  9
$CHAMFERA
 40
10.0
  9
$CHAMFERB
 40
10.0
  9
$CHAMFERC
 40
20.0
  9
$CHAMFERD
 40
0.0
  9
$SKPOLY
 70
     0
  9
$TDCREATE
 40
2453560.425443067
  9
$TDUCREATE
 40
2453560.383776400
  9
$TDUPDATE
 40
2453977.661601562
  9
$TDUUPDATE
 40
2453977.619934896
  9
$TDINDWG
 40
0.0060774653
  9
$TDUSRTIMER
 40
0.0060774653
  9
$USRTIMER
 70
     1
  9
$ANGBASE
 50
0.0
  9
$ANGDIR
 70
     0
  9
$PDMODE
 70
     0
  9
$PDSIZE
 40
0.0
  9
$PLINEWID
 40
0.0
  9
$SPLFRAME
 70
     0
  9
$SPLINETYPE
 70
     6
  9
$SPLINESEGS
 70
     8
  9
$HANDSEED
  5
10B5
  9
$SURFTAB1
 70
     6
  9
$SURFTAB2
 70
     6
  9
$SURFTYPE
 70
     6
  9
$SURFU
 70
     6
  9
$SURFV
 70
     6
  9
$UCSBASE
  2

  9
$UCSNAME
  2

  9
$UCSORG
 10
0.0
 20
0.0
 30
0.0
  9
$UCSXDIR
 10
1.0
 20
0.0
 30
0.0
  9
$UCSYDIR
 10
0.0
 20
1.0
 30
0.0
  9
$UCSORTHOREF
  2

  9
$UCSORTHOVIEW
 70
     0
  9
$UCSORGTOP
 10
0.0
 20
0.0
 30
0.0
  9
$UCSORGBOTTOM
 10
0.0
 20
0.0
 30
0.0
  9
$UCSORGLEFT
 10
0.0
 20
0.0
 30
0.0
  9
$UCSORGRIGHT
 10
0.0
 20
0.0
 30
0.0
  9
$UCSORGFRONT
 10
0.0
 20
0.0
 30
0.0
  9
$UCSORGBACK
 10
0.0
 20
0.0
 30
0.0
  9
$PUCSBASE
  2

  9
$PUCSNAME
  2

  9
$PUCSORG
 10
0.0
 20
0.0
 30
0.0
  9
$PUCSXDIR
 10
1.0
 20
0.0
 30
0.0
  9
$PUCSYDIR
 10
0.0
 20
1.0
 30
0.0
  9
$PUCSORTHOREF
  2

  9
$PUCSORTHOVIEW
 70
     0
  9
$PUCSORGTOP
 10
0.0
 20
0.0
 30
0.0
  9
$PUCSORGBOTTOM
 10
0.0
 20
0.0
 30
0.0
  9
$PUCSORGLEFT
 10
0.0
 20
0.0
 30
0.0
  9
$PUCSORGRIGHT
 10
0.0
 20
0.0
 30
0.0
  9
$PUCSORGFRONT
 10
0.0
 20
0.0
 30
0.0
  9
$PUCSORGBACK
 10
0.0
 20
0.0
 30
0.0
  9
$USERI1
 70
     0
  9
$USERI2
 70
     0
  9
$USERI3
 70
     0
  9
$USERI4
 70
     0
  9
$USERI5
 70
     0
  9
$USERR1
 40
0.0
  9
$USERR2
 40
0.0
  9
$USERR3
 40
0.0
  9
$USERR4
 40
0.0
  9
$USERR5
 40
0.0
  9
$WORLDVIEW
 70
     1
  9
$SHADEDGE
 70
     3
  9
$SHADEDIF
 70
    70
  9
$TILEMODE
 70
     1
  9
$MAXACTVP
 70
    64
  9
$PINSBASE
 10
0.0
 20
0.0
 30
0.0
  9
$PLIMCHECK
 70
     0
  9
$PEXTMIN
 10
1.000000000000000E+20
 20
1.000000000000000E+20
 30
1.000000000000000E+20
  9
$PEXTMAX
 10
-1.000000000000000E+20
 20
-1.000000000000000E+20
 30
-1.000000000000000E+20
  9
$PLIMMIN
 10
0.0
 20
0.0
  9
$PLIMMAX
 10
420.0
 20
297.0
  9
$UNITMODE
 70
     0
  9
$VISRETAIN
 70
     1
  9
$PLINEGEN
 70
     0
  9
$PSLTSCALE
 70
     1
  9
$TREEDEPTH
 70
  3020
  9
$CMLSTYLE
  2
Standard
  9
$CMLJUST
 70
     0
  9
$CMLSCALE
 40
20.0
  9
$PROXYGRAPHICS
 70
     1
  9
$MEASUREMENT
 70
     1
  9
$CELWEIGHT
370
    -1
  9
$ENDCAPS
280
     0
  9
$JOINSTYLE
280
     0
  9
$LWDISPLAY
290
     0
  9
$INSUNITS
 70
     6
  9
$HYPERLINKBASE
  1

  9
$STYLESHEET
  1
monochrome.ctb
  9
$XEDIT
290
     1
  9
$CEPSNTYPE
380
     0
  9
$PSTYLEMODE
290
     1
  9
$FINGERPRINTGUID
  2
{69D0DEC6-FCA3-4410-A8C2-11871FF02F65}
  9
$VERSIONGUID
  2
{9EAC044D-D0D3-4066-BE61-514BD4F5F82B}
  9
$EXTNAMES
290
     1
  9
$PSVPSCALE
 40
0.0
  9
$OLESTARTUP
290
     0
  0
ENDSEC
  0
SECTION
  2
CLASSES
  0
CLASS
  1
ACDBDICTIONARYWDFLT
  2
AcDbDictionaryWithDefault
  3
ObjectDBX Classes
 90
        0
280
     0
281
     0
  0
CLASS
  1
ACDBPLACEHOLDER
  2
AcDbPlaceHolder
  3
ObjectDBX Classes
 90
        0
280
     0
281
     0
  0
CLASS
  1
LAYOUT
  2
AcDbLayout
  3
ObjectDBX Classes
 90
        0
280
     0
281
     0
  0
CLASS
  1
DICTIONARYVAR
  2
AcDbDictionaryVar
  3
ObjectDBX Classes
 90
        0
280
     0
281
     0
  0
CLASS
  1
DIMASSOC
  2
AcDbDimAssoc
  3
"AcDbDimAssoc|Product Desc:     AcDim ARX App For Dimension|Company:          Autodesk, Inc.|WEB Address:      www.autodesk.com"
 90
    32768
280
     0
281
     0
  0
CLASS
  1
TABLESTYLE
  2
AcDbTableStyle
  3
ObjectDBX Classes
 90
     2047
280
     0
281
     0
  0
CLASS
  1
SORTENTSTABLE
  2
AcDbSortentsTable
  3
ObjectDBX Classes
 90
        0
280
     0
281
     0
  0
ENDSEC
  0
SECTION
  2
TABLES
  0
TABLE
  2
VPORT
  5
8
330
0
100
AcDbSymbolTable
 70
     2
  0
VPORT
  5
10AD
330
8
100
AcDbSymbolTableRecord
100
AcDbViewportTableRecord
  2
*Active
 70
     0
 10
0.0
 20
0.0
 11
1.0
 21
1.0
 12
206.7475900854306
 22
229.2917412030415
 13
0.0
 23
0.0
 14
10.0
 24
10.0
 15
10.0
 25
10.0
 16
0.0
 26
0.0
 36
1.0
 17
0.0
 27
0.0
 37
0.0
 40
1.755631058165246
 41
1.593939393939393
 42
50.0
 43
0.0
 44
0.0
 50
0.0
 51
0.0
 71
     0
 72
   100
 73
     1
 74
     2
 75
     0
 76
     0
 77
     0
 78
     0
281
     0
 65
     1
110
0.0
120
0.0
130
0.0
111
1.0
121
0.0
131
0.0
112
0.0
122
1.0
132
0.0
 79
     0
146
0.0
  0
ENDTAB
  0
TABLE
  2
LTYPE
  5
5
330
0
100
AcDbSymbolTable
 70
     3
  0
LTYPE
  5
14
330
5
100
AcDbSymbolTableRecord
100
AcDbLinetypeTableRecord
  2
ByBlock
 70
     0
  3

 72
    65
 73
     0
 40
0.0
  0
LTYPE
  5
15
330
5
100
AcDbSymbolTableRecord
100
AcDbLinetypeTableRecord
  2
ByLayer
 70
     0
  3

 72
    65
 73
     0
 40
0.0
  0
LTYPE
  5
16
330
5
100
AcDbSymbolTableRecord
100
AcDbLinetypeTableRecord
  2
Continuous
 70
     0
  3
Solid line
 72
    65
 73
     0
 40
0.0
  0
LTYPE
  5
2D
330
5
100
AcDbSymbolTableRecord
100
AcDbLinetypeTableRecord
  2
DASHDOT
 70
     0
  3
Dash dot __ . __ . __ . __ . __ . __ . __ . __
 72
    65
 73
     4
 40
25.4
 49
12.7
 74
     0
 49
-6.349999999999999
 74
     0
 49
0.0
 74
     0
 49
-6.349999999999999
 74
     0
  0
LTYPE
  5
2E
330
5
100
AcDbSymbolTableRecord
100
AcDbLinetypeTableRecord
  2
HIDDEN
 70
     0
  3
Hidden __ __ __ __ __ __ __ __ __ __ __ __ __ _
 72
    65
 73
     2
 40
9.524999999999998
 49
6.349999999999999
 74
     0
 49
-3.174999999999999
 74
     0
  0
ENDTAB
  0
TABLE
  2
LAYER
  5
2
330
0
100
AcDbSymbolTable
 70
    17
  0
LAYER
  5
10
330
2
100
AcDbSymbolTableRecord
100
AcDbLayerTableRecord
  2
0
 70
     0
 62
     7
  6
Continuous
370
    -3
390
F
  0
LAYER
  5
2F
330
2
100
AcDbSymbolTableRecord
100
AcDbLayerTableRecord
  2
1
 70
     0
 62
     1
  6
Continuous
370
    -3
390
F
  0
LAYER
  5
30
330
2
100
AcDbSymbolTableRecord
100
AcDbLayerTableRecord
  2
2
 70
     0
 62
     2
  6
Continuous
370
    -3
390
F
  0
LAYER
  5
31
330
2
100
AcDbSymbolTableRecord
100
AcDbLayerTableRecord
  2
3
 70
     0
 62
     3
  6
Continuous
370
    -3
390
F
  0
LAYER
  5
32
330
2
100
AcDbSymbolTableRecord
100
AcDbLayerTableRecord
  2
4
 70
     0
 62
     4
  6
Continuous
370
    -3
390
F
  0
LAYER
  5
33
330
2
100
AcDbSymbolTableRecord
100
AcDbLayerTableRecord
  2
5
 70
     0
 62
     5
  6
Continuous
370
    -3
390
F
  0
LAYER
  5
34
330
2
100
AcDbSymbolTableRecord
100
AcDbLayerTableRecord
  2
6
 70
     0
 62
     6
  6
Continuous
370
    -3
390
F
  0
LAYER
  5
35
330
2
100
AcDbSymbolTableRecord
100
AcDbLayerTableRecord
  2
7
 70
     0
 62
     7
  6
Continuous
370
    -3
390
F
  0
LAYER
  5
36
330
2
100
AcDbSymbolTableRecord
100
AcDbLayerTableRecord
  2
cen
 70
     0
 62
     7
  6
DASHDOT
370
    -3
390
F
  0
LAYER
  5
37
330
2
100
AcDbSymbolTableRecord
100
AcDbLayerTableRecord
  2
hid
 70
     0
 62
     7
  6
HIDDEN
370
    -3
390
F
  0
LAYER
  5
5D6
330
2
100
AcDbSymbolTableRecord
100
AcDbLayerTableRecord
  2
hatch
 70
     0
 62
     9
  6
Continuous
370
    -3
390
F
  0
LAYER
  5
8AF
330
2
100
AcDbSymbolTableRecord
100
AcDbLayerTableRecord
  2
9
 70
     0
 62
     9
  6
Continuous
370
    -3
390
F
  0
LAYER
  5
8F8
330
2
100
AcDbSymbolTableRecord
100
AcDbLayerTableRecord
  2
leg fin
 70
     0
 62
     9
  6
Continuous
370
    -3
390
F
  0
LAYER
  5
91D
330
2
100
AcDbSymbolTableRecord
100
AcDbLayerTableRecord
  2
cotas
 70
     0
 62
     1
  6
Continuous
370
    -3
390
F
  0
LAYER
  5
92F
330
2
100
AcDbSymbolTableRecord
100
AcDbLayerTableRecord
  2
Defpoints
 70
     0
 62
     7
  6
Continuous
290
     0
370
    -3
390
F
  0
LAYER
  5
BA5
330
2
100
AcDbSymbolTableRecord
100
AcDbLayerTableRecord
  2
SANINDUSA
 70
     0
 62
     3
  6
Continuous
370
    -3
390
F
  0
LAYER
  5
103E
330
2
100
AcDbSymbolTableRecord
100
AcDbLayerTableRecord
  2
BLOCKS
 70
     0
 62
     3
  6
Continuous
370
    -3
390
F
  0
ENDTAB
  0
TABLE
  2
STYLE
  5
3
330
0
100
AcDbSymbolTable
 70
     4
  0
STYLE
  5
11
330
3
100
AcDbSymbolTableRecord
100
AcDbTextStyleTableRecord
  2
Standard
 70
     0
 40
0.0
 41
1.0
 50
0.0
 71
     0
 42
2.5
  3
Avgardn.ttf
  4

1001
ACAD
1000
AvantGarde Bk BT
1071
       34
  0
STYLE
  5
2C
330
3
100
AcDbSymbolTableRecord
100
AcDbTextStyleTableRecord
  2

 70
     1
 40
0.0
 41
1.0
 50
0.0
 71
     0
 42
2.5
  3
ltypeshp.shx
  4

  0
STYLE
  5
91F
330
3
100
AcDbSymbolTableRecord
100
AcDbTextStyleTableRecord
  2
SANINDUSA
 70
     0
 40
0.0
 41
1.0
 50
0.0
 71
     0
 42
2.5
  3
verdana.TTF
  4

1001
ACAD
1000
Verdana
1071
       34
  0
STYLE
  5
BB0
330
3
100
AcDbSymbolTableRecord
100
AcDbTextStyleTableRecord
  2
SLDTEXTSTYLE0
 70
     0
 40
0.0
 41
0.75
 50
0.0
 71
     0
 42
0.0
  3
TXT
  4

  0
ENDTAB
  0
TABLE
  2
VIEW
  5
6
330
0
100
AcDbSymbolTable
 70
     0
  0
ENDTAB
  0
TABLE
  2
UCS
  5
7
330
0
100
AcDbSymbolTable
 70
     0
  0
ENDTAB
  0
TABLE
  2
APPID
  5
9
330
0
100
AcDbSymbolTable
 70
     2
  0
APPID
  5
12
330
9
100
AcDbSymbolTableRecord
100
AcDbRegAppTableRecord
  2
ACAD
 70
     0
  0
APPID
  5
3A
330
9
100
AcDbSymbolTableRecord
100
AcDbRegAppTableRecord
  2
DCO15
 70
     0
  0
ENDTAB
  0
TABLE
  2
DIMSTYLE
  5
A
330
0
100
AcDbSymbolTable
 70
     2
100
AcDbDimStyleTable
 71
     1
340
921
  0
DIMSTYLE
105
45
330
A
100
AcDbSymbolTableRecord
100
AcDbDimStyleTableRecord
  2
STANDARD
 70
     0
289
     0
340
11
  0
DIMSTYLE
105
921
330
A
100
AcDbSymbolTableRecord
100
AcDbDimStyleTableRecord
  2
SANINDUSA
 70
     0
 41
2.0
 42
1.0
 43
1.0
 44
1.0
 73
     0
 74
     0
 77
     1
 78
     8
140
2.0
141
0.0
143
0.03937007874016
147
1.0
171
     3
172
     1
176
   256
177
   256
178
   256
179
     1
271
     1
272
     1
274
     3
278
    44
283
     0
284
     8
340
91F
371
    -1
372
    -1
  0
ENDTAB
  0
TABLE
  2
BLOCK_RECORD
  5
1
330
0
100
AcDbSymbolTable
 70
     6
  0
BLOCK_RECORD
  5
1F
102
{ACAD_XDICTIONARY
360
100E
102
}
330
1
100
AcDbSymbolTableRecord
100
AcDbBlockTableRecord
  2
*Model_Space
340
22
  0
BLOCK_RECORD
  5
1B
330
1
100
AcDbSymbolTableRecord
100
AcDbBlockTableRecord
  2
*Paper_Space
340
1E
  0
BLOCK_RECORD
  5
23
330
1
100
AcDbSymbolTableRecord
100
AcDbBlockTableRecord
  2
*Paper_Space0
340
26
  0
BLOCK_RECORD
  5
919
330
1
100
AcDbSymbolTableRecord
100
AcDbBlockTableRecord
  2
_DotSmall
340
0
  0
BLOCK_RECORD
  5
922
330
1
100
AcDbSymbolTableRecord
100
AcDbBlockTableRecord
  2
base para cotas
340
0
310
2800000020000000200000000100080000000000000400000000000000000000000000000000000000000000000080000080000000808000800000008000800080800000C0C0C000C0DCC000F0CAA6000020400000206000002080000020A0000020C0000020E00000400000004020000040400000406000004080000040A0
310
000040C0000040E00000600000006020000060400000606000006080000060A0000060C0000060E00000800000008020000080400000806000008080000080A0000080C0000080E00000A0000000A0200000A0400000A0600000A0800000A0A00000A0C00000A0E00000C0000000C0200000C0400000C0600000C0800000C0
310
A00000C0C00000C0E00000E0000000E0200000E0400000E0600000E0800000E0A00000E0C00000E0E00040000000400020004000400040006000400080004000A0004000C0004000E00040200000402020004020400040206000402080004020A0004020C0004020E000404000004040200040404000404060004040800040
310
40A0004040C0004040E00040600000406020004060400040606000406080004060A0004060C0004060E00040800000408020004080400040806000408080004080A0004080C0004080E00040A0000040A0200040A0400040A0600040A0800040A0A00040A0C00040A0E00040C0000040C0200040C0400040C0600040C08000
310
40C0A00040C0C00040C0E00040E0000040E0200040E0400040E0600040E0800040E0A00040E0C00040E0E00080000000800020008000400080006000800080008000A0008000C0008000E00080200000802020008020400080206000802080008020A0008020C0008020E00080400000804020008040400080406000804080
310
008040A0008040C0008040E00080600000806020008060400080606000806080008060A0008060C0008060E00080800000808020008080400080806000808080008080A0008080C0008080E00080A0000080A0200080A0400080A0600080A0800080A0A00080A0C00080A0E00080C0000080C0200080C0400080C0600080C0
310
800080C0A00080C0C00080C0E00080E0000080E0200080E0400080E0600080E0800080E0A00080E0C00080E0E000C0000000C0002000C0004000C0006000C0008000C000A000C000C000C000E000C0200000C0202000C0204000C0206000C0208000C020A000C020C000C020E000C0400000C0402000C0404000C0406000C0
310
408000C040A000C040C000C040E000C0600000C0602000C0604000C0606000C0608000C060A000C060C000C060E000C0800000C0802000C0804000C0806000C0808000C080A000C080C000C080E000C0A00000C0A02000C0A04000C0A06000C0A08000C0A0A000C0A0C000C0A0E000C0C00000C0C02000C0C04000C0C06000
310
C0C08000C0C0A000F0FBFF00A4A0A000808080000000FF0000FF000000FFFF00FF000000FF00FF00FFFF0000FFFFFF00A4A4A4A4A4A4A4A4A4A4A4A4A4A4A4A4A4A4A4A4A4A4A4A4A4A4A4A4A4A4A4A4A4A4A4A4A4A4A4A4A4A4A4A4A4A4A4A4A4A4A4A4A4A4A4A4A4A4A4A4A4A4A4A4A4A4A4A4A4A4A4A4A4A4A4A4A4A4A4
310
A4A4A4A4A4A4A4A4A4A4A4A4A4A4A4A4A4A4A4A4A4A4A4A4A4A4A4A4A4A4A4A4A4A4A4A4A4A4A4A4A4A4A4A4A4A4A4A4A4A4A4A4A4A4A4A4A4A4A4A4A4A4A4A4A4A4A4A4A4A4A4A4A4A4A4A4A4A4A4A4A4A4A4A4A4A4A4A4A4A4A4A4A4A4A4A4A4A4A4A4A4A4A4A4A4A4A4A4A4A4A4A4A4A4A4A4A4A4A4A4A4A4A4A4A4A4A4
310
A4A4A4A4A4A4A4A4A4A4A4A4A4A4A4A4A4A4A4A4A4A4A4A4A4A4A4A4A4A4A4A4A4A4A4A4A4A4A4A4A4A4A4A4A4A4A4A4A4A4A4A4A4A4A4A4A4A4A4A4A4A4A4A4A4A4A4A4A4A4A4A4A4A4A4A4A4A4A4A4A4A4A4A4A4A4A4A4A4A4A4A4A4A4A4A4A4A4A4A4A4A4A4A4A4A4A4A4A4A4A4A4A4A4A4A4A4A4A4A4A4A4A4A4A4A4A4
310
A4A4A4A4A4A4A4A4A4A4A4A4A4A4A4A4A4A4A4A4A4A4A4A4A4A4A4A4A4A4A4A4A4A4A4A4A4A4A4A4A4A4A4A4A4A4A4A4A4A4A4A4A4A4A4A4A4A4A4A4A4A4A4A4A4A4A4A4A4A4A4A4A4A4A4A4A4A4A4A4A4A4A4A4A4A4A4A4A4A4A4A4A4A4A4A4A4A4A4A4A4A4A4A4A4A4A4A4A4A4A4A4A4A4A4A4F9F9F9F9F9F9F9F9F9F9F9
310
F9F9F9F9F9F9F9F9F9F9F9F9F9F9F9F9F9F9F9A4A4F9F9F9F9F9F9F9F9F9F9F9F9F9F9F9F9F9F9F9F9F9F9F9F9F9F9F9F9F9F9A4A4F9F9F9F9F9F9F9F9F9F9F9F9F9F9F9F9F9F9F9F9F9F9F9F9F9F9F9F9F9F9A4A4F9A4A4A4A4A4A4A4A4A4A4A4A4A4A4A4A4A4A4A4A4A4A4A4A4A4A4A4A4F9A4A4A4A4A4A4A4A4A4A4A4A4
310
A4A4A4A4A4A4A4A4A4A4A4A4A4A4A4A4A4A4A4A4A4A4A4A4A4A4A4A4A4A4A4A4A4A4A4A4A4A4A4A4A4A4A4A4A4A4A4A4A4A4A4A4A4A4A4A4A4A4A4A4A4A4A4A4A4A4A4A4A4A4A4A4A4A4A4A4A4A4A4A4A4A4A4A4A4A4A4A4A4A4A4A4A4A4A4A4A4A4A4A4A4A4A4A4A4A4A4A4A4A4A4A4A4A4A4A4A4A4A4A4A4A4A4A4A4A4A4
310
A4A4A4A4A4A4A4A4A4A4A4A4A4A4A4A4A4A4A4A4A4A4A4A4A4A4A4A4A4A4A4A4A4A4A4A4A4A4A4A4A4A4A4A4A4A4A4A4A4A4A4A4A4A4A4A4A4A4A4A4A4A4A4A4A4A4A4A4A4A4A4A4A4A4A4A4A4A4A4A4A4A4A4A4A4A4A4A4A4A4A4A4A4A4A4A4A4A4A4A4A4A4A4A4A4A4A4A4A4A4A4A4A4A4A4A4A4A4A4A4A4A4A4A4A4A4A4
310
A4A4A4A4A4A4A4A4A4A4A4A4A4A4A4A4A4A4A4A4A4A4A4A4A4A4A4A4A4A4A4A4A4A4A4A4A4A4A4A4A4A4A4A4A4A4A4A4A4A4A4A4A4A4A4A4A4A4A4A4A4A4A4A4A4A4A4A4A4A4A4A4A4A4A4A4A4A4A4A4A4A4A4A4A4A4A4A4A4A4A4A4A4A4A4A4A4A4A4A4A4A4A4A4A4A4A4A4A4A4A4A4A4A4A4A4A4A4A4A4A4A4A4A4A4A4A4
310
A4A4A4A4A4A4A4A4A4A4A4A4A4A4A4A4A4A4A4A4A4A4A4A4A4A4A4A4A4A4A4A4A4A4A4A4A4A4A4A4A4A4A4A4A4A4A4A4A4A4A4A4A4A4A4A4
1001
ACAD
1000
DesignCenter Data
1002
{
1070
     1
1070
     4
1002
}
  0
BLOCK_RECORD
  5
AA8
330
1
100
AcDbSymbolTableRecord
100
AcDbBlockTableRecord
  2
_CLOSED
340
0
  0
BLOCK_RECORD
  5
BB1
330
1
100
AcDbSymbolTableRecord
100
AcDbBlockTableRecord
  2
A$C473F1B8A
340
0
1001
ACAD
1000
DesignCenter Data
1002
{
1070
     1
1070
     0
1002
}
  0
BLOCK_RECORD
  5
103F
330
1
100
AcDbSymbolTableRecord
100
AcDbBlockTableRecord
  2
108660CT
340
0
1001
ACAD
1000
DesignCenter Data
1002
{
1070
     1
1070
     4
1002
}
  0
ENDTAB
  0
ENDSEC
  0
SECTION
  2
BLOCKS
  0
BLOCK
  5
20
330
1F
100
AcDbEntity
  8
0
100
AcDbBlockBegin
  2
*Model_Space
 70
     0
 10
0.0
 20
0.0
 30
0.0
  3
*Model_Space
  1

  0
ENDBLK
  5
21
330
1F
100
AcDbEntity
  8
0
100
AcDbBlockEnd
  0
BLOCK
  5
1C
330
1B
100
AcDbEntity
 67
     1
  8
0
100
AcDbBlockBegin
  2
*Paper_Space
 70
     0
 10
0.0
 20
0.0
 30
0.0
  3
*Paper_Space
  1

  0
ENDBLK
  5
1D
330
1B
100
AcDbEntity
 67
     1
  8
0
100
AcDbBlockEnd
  0
BLOCK
  5
24
330
23
100
AcDbEntity
 67
     1
  8
0
100
AcDbBlockBegin
  2
*Paper_Space0
 70
     0
 10
0.0
 20
0.0
 30
0.0
  3
*Paper_Space0
  1

  0
ENDBLK
  5
25
330
23
100
AcDbEntity
 67
     1
  8
0
100
AcDbBlockEnd
  0
BLOCK
  5
91B
330
919
100
AcDbEntity
  8
0
100
AcDbBlockBegin
  2
_DotSmall
 70
     0
 10
0.0
 20
0.0
 30
0.0
  3
_DotSmall
  1

  0
LWPOLYLINE
  5
91A
330
919
100
AcDbEntity
  8
0
  6
ByBlock
 62
     0
100
AcDbPolyline
 90
        2
 70
     1
 43
0.5
 10
-0.0625
 20
0.0
 42
1.0
 10
0.0625
 20
0.0
 42
1.0
  0
ENDBLK
  5
91C
330
919
100
AcDbEntity
  8
0
100
AcDbBlockEnd
  0
BLOCK
  5
92A
330
922
100
AcDbEntity
  8
0
100
AcDbBlockBegin
  2
base para cotas
 70
     0
 10
0.0
 20
0.0
 30
0.0
  3
base para cotas
  1

  0
LINE
  5
B36
330
922
100
AcDbEntity
  8
cotas
100
AcDbLine
 10
0.0
 20
-30.0
 30
0.0
 11
327.1260136525398
 21
-30.0
 31
0.0
  0
LINE
  5
B37
330
922
100
AcDbEntity
  8
cotas
100
AcDbLine
 10
0.0
 20
-25.0
 30
0.0
 11
327.1260136525398
 21
-25.0
 31
0.0
  0
LINE
  5
B38
330
922
100
AcDbEntity
  8
cotas
100
AcDbLine
 10
0.0
 20
-20.0
 30
0.0
 11
327.1260136525398
 21
-20.0
 31
0.0
  0
LINE
  5
B39
330
922
100
AcDbEntity
  8
cotas
100
AcDbLine
 10
0.0
 20
-15.0
 30
0.0
 11
327.1260136525398
 21
-15.0
 31
0.0
  0
LINE
  5
B3A
330
922
100
AcDbEntity
  8
cotas
100
AcDbLine
 10
0.0
 20
-10.0
 30
0.0
 11
327.1260136525398
 21
-10.0
 31
0.0
  0
LINE
  5
B3B
330
922
100
AcDbEntity
  8
cotas
100
AcDbLine
 10
0.0
 20
0.0
 30
0.0
 11
0.0
 21
-30.0
 31
0.0
  0
LINE
  5
B3C
330
922
100
AcDbEntity
  8
cotas
100
AcDbLine
 10
327.1260136525398
 20
-30.0
 30
0.0
 11
327.1260136525398
 21
0.0
 31
0.0
  0
ENDBLK
  5
92B
330
922
100
AcDbEntity
  8
0
100
AcDbBlockEnd
  0
BLOCK
  5
AAD
330
AA8
100
AcDbEntity
  8
0
100
AcDbBlockBegin
  2
_CLOSED
 70
     0
 10
0.0
 20
0.0
 30
0.0
  3
_CLOSED
  1

  0
LINE
  5
AA9
330
AA8
100
AcDbEntity
  8
0
100
AcDbLine
 10
-1.0
 20
0.166667
 30
0.0
 11
0.0
 21
0.0
 31
0.0
  0
LINE
  5
AAA
330
AA8
100
AcDbEntity
  8
0
100
AcDbLine
 10
0.0
 20
0.0
 30
0.0
 11
-1.0
 21
-0.166667
 31
0.0
  0
LINE
  5
AAB
330
AA8
100
AcDbEntity
  8
0
100
AcDbLine
 10
-1.0
 20
0.166667
 30
0.0
 11
-1.0
 21
-0.166667
 31
0.0
  0
LINE
  5
AAC
330
AA8
100
AcDbEntity
  8
0
100
AcDbLine
 10
0.0
 20
0.0
 30
0.0
 11
-1.0
 21
0.0
 31
0.0
  0
ENDBLK
  5
AAE
330
AA8
100
AcDbEntity
  8
0
100
AcDbBlockEnd
  0
BLOCK
  5
DDD
330
BB1
100
AcDbEntity
  8
0
100
AcDbBlockBegin
  2
A$C473F1B8A
 70
     0
 10
0.0
 20
0.0
 30
0.0
  3
A$C473F1B8A
  1

  0
ARC
  5
BB2
330
BB1
100
AcDbEntity
  8
0
  6
Continuous
 62
     7
100
AcDbCircle
 10
6.905314693726239
 20
71.44795964459977
 30
0.0
 40
10.01515935650281
100
AcDbArc
 50
88.57032319916008
 51
91.42967680083808
  0
LINE
  5
BB3
330
BB1
100
AcDbEntity
  8
0
  6
Continuous
 62
     7
100
AcDbLine
 10
7.155192700564885
 20
81.46000129043025
 30
0.0
 11
7.155192700564885
 21
81.25375402807089
 31
0.0
  0
LINE
  5
BB4
330
BB1
100
AcDbEntity
  8
0
  6
Continuous
 62
     7
100
AcDbLine
 10
7.155192700564885
 20
81.25375402807089
 30
0.0
 11
6.85533909235869
 21
81.25375402807089
 31
0.0
  0
ARC
  5
BB5
330
BB1
100
AcDbEntity
  8
0
  6
Continuous
 62
     7
100
AcDbCircle
 10
6.85533909235869
 20
81.45375402807088
 30
0.0
 40
0.2000000000000028
100
AcDbArc
 50
178.2099999999652
 51
270.0000000000008
  0
LINE
  5
BB6
330
BB1
100
AcDbEntity
  8
0
  6
Continuous
 62
     7
100
AcDbLine
 10
69.31771189830651
 20
81.25375402807089
 30
0.0
 11
69.0178582901003
 21
81.25375402807089
 31
0.0
  0
LINE
  5
BB7
330
BB1
100
AcDbEntity
  8
0
  6
Continuous
 62
     7
100
AcDbLine
 10
69.0178582901003
 20
81.25375402807089
 30
0.0
 11
69.0178582901003
 21
81.46000129043025
 31
0.0
  0
ARC
  5
BB8
330
BB1
100
AcDbEntity
  8
0
  6
Continuous
 62
     7
100
AcDbCircle
 10
69.26773629693812
 20
71.44795964486528
 30
0.0
 40
10.01515935623739
100
AcDbArc
 50
88.57032319911915
 51
91.42967680087286
  0
ARC
  5
BB9
330
BB1
100
AcDbEntity
  8
0
  6
Continuous
 62
     7
100
AcDbCircle
 10
69.31771189830651
 20
81.45375402807088
 30
0.0
 40
0.2000000000000059
100
AcDbArc
 50
270.0000000000008
 51
1.789999999998143
  0
LINE
  5
BBA
330
BB1
100
AcDbEntity
  8
0
  6
Continuous
 62
     7
100
AcDbLine
 10
7.155192700564885
 20
81.46000129043025
 30
0.0
 11
69.0178582901003
 21
81.46000129043025
 31
0.0
  0
LINE
  5
BBB
330
BB1
100
AcDbEntity
  8
0
  6
Continuous
 62
     7
100
AcDbLine
 10
69.0178582901003
 20
81.25375402807089
 30
0.0
 11
7.155192700564885
 21
81.25375402807089
 31
0.0
  0
LWPOLYLINE
  5
BBC
330
BB1
100
AcDbEntity
  8
0
  6
Continuous
 62
     7
100
AcDbPolyline
 90
        9
 70
   128
 43
0.0
 10
7.821143819920301
 20
102.7693721839693
 10
7.723705993402965
 20
102.7721145701229
 10
7.630008012488161
 20
102.7741522444114
 10
7.543646180525581
 20
102.7754069970933
 10
7.467935225778745
 20
102.7758306684194
 10
7.405781075968878
 20
102.7754069970933
 10
7.359569323346477
 20
102.7741522444114
 10
7.331073661209206
 20
102.7721145701229
 10
7.321387806243308
 20
102.7693721839693
  0
LINE
  5
BBD
330
BB1
100
AcDbEntity
  8
0
  6
Continuous
 62
     7
100
AcDbLine
 10
7.821143819920301
 20
102.7693721839693
 30
0.0
 11
7.155192700564885
 21
81.46000129043025
 31
0.0
  0
LINE
  5
BBE
330
BB1
100
AcDbEntity
  8
0
  6
Continuous
 62
     7
100
AcDbLine
 10
6.655436686887888
 20
81.46000129043025
 30
0.0
 11
7.321387806243308
 21
102.7693721839693
 31
0.0
  0
LWPOLYLINE
  5
BBF
330
BB1
100
AcDbEntity
  8
0
  6
Continuous
 62
     7
100
AcDbPolyline
 90
        9
 70
   128
 43
0.0
 10
68.85166318442189
 20
102.7693721839693
 10
68.841977329456
 20
102.7721145701229
 10
68.81348166731872
 20
102.7741522444114
 10
68.76726991469634
 20
102.7754069970933
 10
68.70511576488645
 20
102.7758306684194
 10
68.62940481013962
 20
102.7754069970933
 10
68.54304297817704
 20
102.7741522444114
 10
68.44934499726223
 20
102.7721145701229
 10
68.35190717074489
 20
102.7693721839693
  0
LINE
  5
BC0
330
BB1
100
AcDbEntity
  8
0
  6
Continuous
 62
     7
100
AcDbLine
 10
68.85166318442189
 20
102.7693721839693
 30
0.0
 11
69.51761430377732
 21
81.46000129043025
 31
0.0
  0
LINE
  5
BC1
330
BB1
100
AcDbEntity
  8
0
  6
Continuous
 62
     7
100
AcDbLine
 10
69.0178582901003
 20
81.46000129043025
 30
0.0
 11
68.35190717074489
 21
102.7693721839693
 31
0.0
  0
LINE
  5
BC2
330
BB1
100
AcDbEntity
  8
0
  6
Continuous
 62
     7
100
AcDbLine
 10
68.35190717074489
 20
102.7693721839693
 30
0.0
 11
7.821143819920301
 21
102.7693721839693
 31
0.0
  0
LINE
  5
BC3
330
BB1
100
AcDbEntity
  8
0
  6
Continuous
 62
     7
100
AcDbLine
 10
7.821143819920308
 20
103.2537540280709
 30
0.0
 11
7.821143819920301
 21
102.7693721839693
 31
0.0
  0
ARC
  5
BC4
330
BB1
100
AcDbEntity
  8
0
  6
Continuous
 62
     7
100
AcDbCircle
 10
7.821143819920308
 20
102.7537540280709
 30
0.0
 40
0.5
100
AcDbArc
 50
90.0
 51
178.2099999999782
  0
LINE
  5
BC5
330
BB1
100
AcDbEntity
  8
0
  6
Continuous
 62
     7
100
AcDbLine
 10
7.821143819920308
 20
103.2537540280709
 30
0.0
 11
68.35190717074489
 21
103.2537540280709
 31
0.0
  0
LINE
  5
BC6
330
BB1
100
AcDbEntity
  8
0
  6
Continuous
 62
     7
100
AcDbLine
 10
68.35190717074489
 20
103.2537540280709
 30
0.0
 11
68.35190717074489
 21
102.7693721839693
 31
0.0
  0
ARC
  5
BC7
330
BB1
100
AcDbEntity
  8
0
  6
Continuous
 62
     7
100
AcDbCircle
 10
68.35190717074489
 20
102.7537540280709
 30
0.0
 40
0.5
100
AcDbArc
 50
1.790000000021769
 51
90.0
  0
LINE
  5
BC8
330
BB1
100
AcDbEntity
  8
0
  6
HIDDEN
 62
     7
100
AcDbLine
 10
38.0865254953326
 20
74.55472138956401
 30
0.0
 11
38.0865254953326
 21
111.0729786057238
 31
0.0
  0
SOLID
  5
BC9
330
BB1
100
AcDbEntity
  8
0
  6
Continuous
 62
     7
100
AcDbTrace
 10
38.0865254953326
 20
76.55472138956402
 30
0.0
 11
32.0865254953326
 21
78.05472138956402
 31
0.0
 12
32.0865254953326
 22
75.05472138956402
 32
0.0
 13
32.0865254953326
 23
75.05472138956402
 33
0.0
  0
LINE
  5
BCA
330
BB1
100
AcDbEntity
  8
0
  6
Continuous
 62
     7
100
AcDbLine
 10
26.0865254953326
 20
76.55472138956402
 30
0.0
 11
38.0865254953326
 21
76.55472138956402
 31
0.0
  0
SOLID
  5
BCB
330
BB1
100
AcDbEntity
  8
0
  6
Continuous
 62
     7
100
AcDbTrace
 10
38.0865254953326
 20
109.0729786057238
 30
0.0
 11
32.0865254953326
 21
110.5729786057238
 31
0.0
 12
32.0865254953326
 22
107.5729786057238
 32
0.0
 13
32.0865254953326
 23
107.5729786057238
 33
0.0
  0
LINE
  5
BCC
330
BB1
100
AcDbEntity
  8
0
  6
Continuous
 62
     7
100
AcDbLine
 10
26.0865254953326
 20
109.0729786057238
 30
0.0
 11
38.0865254953326
 21
109.0729786057238
 31
0.0
  0
MTEXT
  5
BCD
330
BB1
100
AcDbEntity
  8
0
 62
     7
100
AcDbMText
 10
26.0865254953326
 20
86.64092960963465
 30
0.0
 40
6.349999999999999
 41
0.0
 71
     1
 72
     5
  1
B
  7
SLDTEXTSTYLE0
 73
     1
 44
1.0
1001
ACAD
1000
MTEXTBEGIN
1070
    73
1070
     1
1070
    44
1040
1.0
1070
    74
1070
     0
1000
MTEXTEND
  0
MTEXT
  5
BCE
330
BB1
100
AcDbEntity
  8
0
 62
     7
100
AcDbMText
 10
26.0865254953326
 20
119.1591868257944
 30
0.0
 40
6.349999999999999
 41
0.0
 71
     1
 72
     5
  1
B
  7
SLDTEXTSTYLE0
 73
     1
 44
1.0
1001
ACAD
1000
MTEXTBEGIN
1070
    73
1070
     1
1070
    44
1040
1.0
1070
    74
1070
     0
1000
MTEXTEND
  0
LINE
  5
BCF
330
BB1
100
AcDbEntity
  8
0
  6
Continuous
 62
     7
100
AcDbLine
 10
68.83034891987559
 20
40.67486325275886
 30
0.0
 11
7.342702070789627
 21
40.67486325275886
 31
0.0
  0
LINE
  5
BD0
330
BB1
100
AcDbEntity
  8
0
  6
Continuous
 62
     7
100
AcDbLine
 10
69.3302025280818
 20
11.3812112072756
 30
0.0
 11
69.3302025280818
 21
40.17500964455265
 31
0.0
  0
LINE
  5
BD1
330
BB1
100
AcDbEntity
  8
0
  6
Continuous
 62
     7
100
AcDbLine
 10
6.842848462583415
 20
40.17500964455265
 30
0.0
 11
6.842848462583415
 21
11.3812112072756
 31
0.0
  0
ARC
  5
BD2
330
BB1
100
AcDbEntity
  8
0
  6
Continuous
 62
     7
100
AcDbCircle
 10
5.996714961689598
 20
11.09930331782309
 30
0.0
 40
0.8421457402567758
100
AcDbArc
 50
354.4759558755241
 51
359.8024417926538
  0
ARC
  5
BD3
330
BB1
100
AcDbEntity
  8
0
  6
Continuous
 62
     7
100
AcDbCircle
 10
70.31805107067113
 20
11.10291767465003
 30
0.0
 40
0.983613417112749
100
AcDbArc
 50
181.6064090278993
 51
184.9200729490882
  0
LWPOLYLINE
  5
BD4
330
BB1
100
AcDbEntity
  8
0
  6
Continuous
 62
     7
100
AcDbPolyline
 90
       10
 70
   128
 43
0.0
 10
69.5177118983065
 20
10.68121120727561
 10
69.51757672281829
 20
10.73250436082383
 10
69.51656717209743
 20
10.82655490446621
 10
69.51462581193716
 20
10.9070907707225
 10
69.51169419433114
 20
10.96877379390735
 10
69.50820512629556
 20
11.00342930506789
 10
69.50416823967177
 20
11.02477167775998
 10
69.49568303304058
 20
11.05223392431833
 10
69.47330701901744
 20
11.0945898824548
 10
69.45914838718841
 20
11.10906196765373
  0
LINE
  5
BD5
330
BB1
100
AcDbEntity
  8
0
  6
Continuous
 62
     7
100
AcDbLine
 10
6.655339092358694
 20
10.68121120727561
 30
0.0
 11
6.655339092358694
 21
0.4998534252419838
 31
0.0
  0
LINE
  5
BD6
330
BB1
100
AcDbEntity
  8
0
  6
Continuous
 62
     7
100
AcDbLine
 10
69.5177118983065
 20
0.4998534252419838
 30
0.0
 11
69.5177118983065
 21
10.68121120727561
 31
0.0
  0
LINE
  5
BD7
330
BB1
100
AcDbEntity
  8
0
  6
Continuous
 62
     7
100
AcDbLine
 10
7.155192700564878
 20
-0.000000182964218
 30
0.0
 11
69.0178582901003
 21
-0.000000182964218
 31
0.0
  0
LINE
  5
BD8
330
BB1
100
AcDbEntity
  8
0
  6
Continuous
 62
     7
100
AcDbLine
 10
7.821143819920326
 20
40.19632390909892
 30
0.0
 11
68.35190717074489
 21
40.19632390909892
 31
0.0
  0
LINE
  5
BD9
330
BB1
100
AcDbEntity
  8
0
  6
Continuous
 62
     7
100
AcDbLine
 10
68.35190717074489
 20
40.19632390909892
 30
0.0
 11
68.35190717074489
 21
39.69656789542191
 31
0.0
  0
LINE
  5
BDA
330
BB1
100
AcDbEntity
  8
0
  6
Continuous
 62
     7
100
AcDbLine
 10
68.35190717074489
 20
39.69656789542191
 30
0.0
 11
7.821143819920315
 21
39.69656789542191
 31
0.0
  0
LINE
  5
BDB
330
BB1
100
AcDbEntity
  8
0
  6
Continuous
 62
     7
100
AcDbLine
 10
7.821143819920326
 20
40.19632390909892
 30
0.0
 11
7.821143819920315
 21
39.69656789542191
 31
0.0
  0
LINE
  5
BDC
330
BB1
100
AcDbEntity
  8
0
  6
Continuous
 62
     7
100
AcDbLine
 10
7.321387806243308
 20
39.69656789542191
 30
0.0
 11
7.821143819920315
 21
39.69656789542191
 31
0.0
  0
LWPOLYLINE
  5
BDD
330
BB1
100
AcDbEntity
  8
0
  6
Continuous
 62
     7
100
AcDbPolyline
 90
        9
 70
   128
 43
0.0
 10
7.321387806243308
 20
39.69656789542191
 10
7.331073661209206
 20
39.79400572193926
 10
7.359569323346484
 20
39.88770370285407
 10
7.405781075968878
 20
39.97406553481665
 10
7.467935225778752
 20
40.04977648956348
 10
7.543646180525598
 20
40.11193063937335
 10
7.630008012488175
 20
40.15814239199575
 10
7.723705993402987
 20
40.18663805413303
 10
7.821143819920326
 20
40.19632390909892
  0
LWPOLYLINE
  5
BDE
330
BB1
100
AcDbEntity
  8
0
  6
Continuous
 62
     7
100
AcDbPolyline
 90
        9
 70
   128
 43
0.0
 10
68.35190717074489
 20
40.19632390909892
 10
68.44934499726223
 20
40.18663805413301
 10
68.54304297817704
 20
40.15814239199575
 10
68.62940481013962
 20
40.11193063937335
 10
68.70511576488645
 20
40.04977648956348
 10
68.76726991469633
 20
39.97406553481665
 10
68.81348166731872
 20
39.88770370285407
 10
68.841977329456
 20
39.79400572193926
 10
68.85166318442189
 20
39.69656789542191
  0
LINE
  5
BDF
330
BB1
100
AcDbEntity
  8
0
  6
Continuous
 62
     7
100
AcDbLine
 10
68.35190717074489
 20
39.69656789542191
 30
0.0
 11
68.85166318442189
 21
39.69656789542191
 31
0.0
  0
LINE
  5
BE0
330
BB1
100
AcDbEntity
  8
0
  6
Continuous
 62
     7
100
AcDbLine
 10
7.321387806243308
 20
1.165804544597332
 30
0.0
 11
7.321387806243308
 21
39.69656789542191
 31
0.0
  0
LINE
  5
BE1
330
BB1
100
AcDbEntity
  8
0
  6
Continuous
 62
     7
100
AcDbLine
 10
7.821143819920315
 20
39.69656789542191
 30
0.0
 11
7.821143819920308
 21
1.165804544597328
 31
0.0
  0
LINE
  5
BE2
330
BB1
100
AcDbEntity
  8
0
  6
Continuous
 62
     7
100
AcDbLine
 10
7.321387806243308
 20
1.165804544597332
 30
0.0
 11
7.821143819920308
 21
1.165804544597328
 31
0.0
  0
LINE
  5
BE3
330
BB1
100
AcDbEntity
  8
0
  6
Continuous
 62
     7
100
AcDbLine
 10
68.35190717074489
 20
1.165804544597328
 30
0.0
 11
68.35190717074489
 21
39.69656789542191
 31
0.0
  0
LINE
  5
BE4
330
BB1
100
AcDbEntity
  8
0
  6
Continuous
 62
     7
100
AcDbLine
 10
68.85166318442189
 20
39.69656789542191
 30
0.0
 11
68.85166318442189
 21
1.165804544597332
 31
0.0
  0
LINE
  5
BE5
330
BB1
100
AcDbEntity
  8
0
  6
Continuous
 62
     7
100
AcDbLine
 10
68.35190717074489
 20
1.165804544597328
 30
0.0
 11
68.85166318442189
 21
1.165804544597332
 31
0.0
  0
ARC
  5
BE6
330
BB1
100
AcDbEntity
  8
0
  6
Continuous
 62
     7
100
AcDbCircle
 10
11.35913940794174
 20
36.15857230740044
 30
0.0
 40
1.49709643619301
100
AcDbArc
 50
89.96754189959032
 51
180.0324581037646
  0
LINE
  5
BE7
330
BB1
100
AcDbEntity
  8
0
  6
Continuous
 62
     7
100
AcDbLine
 10
9.862043211975169
 20
4.704648238784031
 30
0.0
 11
9.862043211975162
 21
36.1577242012352
 31
0.0
  0
ARC
  5
BE8
330
BB1
100
AcDbEntity
  8
0
  6
Continuous
 62
     7
100
AcDbCircle
 10
11.35913940794166
 20
4.703800132618674
 30
0.0
 40
1.497096436192882
100
AcDbArc
 50
179.9675418993578
 51
270.0324581004135
  0
LINE
  5
BE9
330
BB1
100
AcDbEntity
  8
0
  6
Continuous
 62
     7
100
AcDbLine
 10
64.81306347655817
 20
3.206703936652186
 30
0.0
 11
11.35998751410703
 21
3.206703936652175
 31
0.0
  0
ARC
  5
BEA
330
BB1
100
AcDbEntity
  8
0
  6
Continuous
 62
     7
100
AcDbCircle
 10
64.81391158272341
 20
4.703800132619051
 30
0.0
 40
1.497096436193248
100
AcDbArc
 50
269.967541899593
 51
0.032458115048772
  0
LINE
  5
BEB
330
BB1
100
AcDbEntity
  8
0
  6
Continuous
 62
     7
100
AcDbLine
 10
66.31100777869004
 20
36.15772420123521
 30
0.0
 11
66.31100777869005
 21
4.704648238784045
 31
0.0
  0
ARC
  5
BEC
330
BB1
100
AcDbEntity
  8
0
  6
Continuous
 62
     7
100
AcDbCircle
 10
64.81391158272335
 20
36.15857230740021
 30
0.0
 40
1.497096436193237
100
AcDbArc
 50
359.9675418885567
 51
90.0324581004056
  0
LINE
  5
BED
330
BB1
100
AcDbEntity
  8
0
  6
Continuous
 62
     7
100
AcDbLine
 10
11.35998751410703
 20
37.65566850336706
 30
0.0
 11
64.81306347655817
 21
37.65566850336706
 31
0.0
  0
LINE
  5
BEE
330
BB1
100
AcDbEntity
  8
0
  6
Continuous
 62
     7
100
AcDbLine
 10
7.821143819920308
 20
1.165804544597328
 30
0.0
 11
68.35190717074489
 21
1.165804544597328
 31
0.0
  0
LINE
  5
BEF
330
BB1
100
AcDbEntity
  8
0
  6
Continuous
 62
     7
100
AcDbLine
 10
11.35998751410703
 20
37.65566850336706
 30
0.0
 11
11.35998751410703
 21
37.15635373598978
 31
0.0
  0
ARC
  5
BF0
330
BB1
100
AcDbEntity
  8
0
  6
Continuous
 62
     7
100
AcDbCircle
 10
11.35749881827488
 20
36.16021289706751
 30
0.0
 40
0.9961439477184102
100
AcDbArc
 50
89.85685611368149
 51
180.143143886328
  0
LINE
  5
BF1
330
BB1
100
AcDbEntity
  8
0
  6
Continuous
 62
     7
100
AcDbLine
 10
9.862043211975162
 20
36.1577242012352
 30
0.0
 11
10.36135797935245
 21
36.1577242012352
 31
0.0
  0
LINE
  5
BF2
330
BB1
100
AcDbEntity
  8
0
  6
Continuous
 62
     7
100
AcDbLine
 10
64.81306347655817
 20
37.65566850336706
 30
0.0
 11
64.81306347655817
 21
37.15635373598979
 31
0.0
  0
LINE
  5
BF3
330
BB1
100
AcDbEntity
  8
0
  6
Continuous
 62
     7
100
AcDbLine
 10
64.81306347655817
 20
37.15635373598979
 30
0.0
 11
11.35998751410703
 21
37.15635373598978
 31
0.0
  0
LINE
  5
BF4
330
BB1
100
AcDbEntity
  8
0
  6
Continuous
 62
     7
100
AcDbLine
 10
65.81169301131274
 20
36.15772420123521
 30
0.0
 11
66.31100777869004
 21
36.15772420123521
 31
0.0
  0
ARC
  5
BF5
330
BB1
100
AcDbEntity
  8
0
  6
Continuous
 62
     7
100
AcDbCircle
 10
64.8155521723909
 20
36.16021289706772
 30
0.0
 40
0.9961439477180597
100
AcDbArc
 50
359.8568561084132
 51
90.14314388635169
  0
LINE
  5
BF6
330
BB1
100
AcDbEntity
  8
0
  6
Continuous
 62
     7
100
AcDbLine
 10
10.36135797935245
 20
36.1577242012352
 30
0.0
 11
10.36135797935245
 21
4.704648238784034
 31
0.0
  0
LINE
  5
BF7
330
BB1
100
AcDbEntity
  8
0
  6
Continuous
 62
     7
100
AcDbLine
 10
9.862043211975169
 20
4.704648238784031
 30
0.0
 11
10.36135797935245
 21
4.704648238784034
 31
0.0
  0
LINE
  5
BF8
330
BB1
100
AcDbEntity
  8
0
  6
Continuous
 62
     7
100
AcDbLine
 10
65.81169301131274
 20
4.704648238784049
 30
0.0
 11
65.81169301131274
 21
36.15772420123521
 31
0.0
  0
LINE
  5
BF9
330
BB1
100
AcDbEntity
  8
0
  6
Continuous
 62
     7
100
AcDbLine
 10
65.81169301131274
 20
4.704648238784049
 30
0.0
 11
66.31100777869005
 21
4.704648238784045
 31
0.0
  0
ARC
  5
BFA
330
BB1
100
AcDbEntity
  8
0
  6
Continuous
 62
     7
100
AcDbCircle
 10
64.8155521723919
 20
4.702159542950724
 30
0.0
 40
0.996143947717238
100
AcDbArc
 50
269.8568561135911
 51
0.1431438955723828
  0
LINE
  5
BFB
330
BB1
100
AcDbEntity
  8
0
  6
Continuous
 62
     7
100
AcDbLine
 10
64.81306347655817
 20
3.706018704029474
 30
0.0
 11
64.81306347655817
 21
3.206703936652186
 31
0.0
  0
ARC
  5
BFC
330
BB1
100
AcDbEntity
  8
0
  6
Continuous
 62
     7
100
AcDbCircle
 10
11.35749881827414
 20
4.702159542951122
 30
0.0
 40
0.9961439477176693
100
AcDbArc
 50
179.8568561136371
 51
270.1431438863621
  0
LINE
  5
BFD
330
BB1
100
AcDbEntity
  8
0
  6
Continuous
 62
     7
100
AcDbLine
 10
11.35998751410703
 20
3.706018704029467
 30
0.0
 11
11.35998751410703
 21
3.206703936652175
 31
0.0
  0
LINE
  5
BFE
330
BB1
100
AcDbEntity
  8
0
  6
Continuous
 62
     7
100
AcDbLine
 10
11.35998751410703
 20
3.706018704029467
 30
0.0
 11
64.81306347655817
 21
3.706018704029474
 31
0.0
  0
LINE
  5
BFF
330
BB1
100
AcDbEntity
  8
0
  6
Continuous
 62
     7
100
AcDbLine
 10
7.821143819920308
 20
1.165804544597328
 30
0.0
 11
7.821143819920301
 21
0.6660485309203282
 31
0.0
  0
LWPOLYLINE
  5
C00
330
BB1
100
AcDbEntity
  8
0
  6
Continuous
 62
     7
100
AcDbPolyline
 90
        9
 70
   128
 43
0.0
 10
7.821143819920301
 20
0.6660485309203282
 10
7.723705993402965
 20
0.6757343858862228
 10
7.630008012488161
 20
0.7042300480235042
 10
7.543646180525581
 20
0.7504418006458984
 10
7.467935225778745
 20
0.8125959504557727
 10
7.405781075968878
 20
0.8883069052026115
 10
7.359569323346477
 20
0.9746687371651923
 10
7.331073661209206
 20
1.068366718079992
 10
7.321387806243308
 20
1.165804544597332
  0
LINE
  5
C01
330
BB1
100
AcDbEntity
  8
0
  6
Continuous
 62
     7
100
AcDbLine
 10
68.35190717074489
 20
1.165804544597328
 30
0.0
 11
68.35190717074489
 21
0.6660485309203282
 31
0.0
  0
LINE
  5
C02
330
BB1
100
AcDbEntity
  8
0
  6
Continuous
 62
     7
100
AcDbLine
 10
68.35190717074489
 20
0.6660485309203282
 30
0.0
 11
7.821143819920301
 21
0.6660485309203282
 31
0.0
  0
LWPOLYLINE
  5
C03
330
BB1
100
AcDbEntity
  8
0
  6
Continuous
 62
     7
100
AcDbPolyline
 90
        9
 70
   128
 43
0.0
 10
68.85166318442189
 20
1.165804544597332
 10
68.841977329456
 20
1.068366718079992
 10
68.81348166731872
 20
0.9746687371651887
 10
68.76726991469634
 20
0.888306905202608
 10
68.70511576488645
 20
0.8125959504557656
 10
68.62940481013962
 20
0.7504418006458949
 10
68.54304297817704
 20
0.7042300480235007
 10
68.44934499726223
 20
0.6757343858862228
 10
68.35190717074489
 20
0.6660485309203282
  0
LWPOLYLINE
  5
C04
330
BB1
100
AcDbEntity
  8
0
  6
Continuous
 62
     7
100
AcDbPolyline
 90
        9
 70
   128
 43
0.0
 10
10.96536377389445
 20
35.55371840669323
 10
10.98501822764532
 20
35.74820673937003
 10
11.04216347522129
 20
35.93524695398614
 10
11.13461108431543
 20
36.1076761653372
 10
11.25882068467787
 20
36.25889103066441
 10
11.41003555000507
 20
36.38310063102684
 10
11.58246476135613
 20
36.47554824012098
 10
11.76950497597224
 20
36.53269348769696
 10
11.96399330864903
 20
36.55234794144782
  0
LINE
  5
C05
330
BB1
100
AcDbEntity
  8
0
  6
Continuous
 62
     7
100
AcDbLine
 10
10.96536377389445
 20
35.55371840669323
 30
0.0
 11
10.36135797935245
 21
36.1577242012352
 31
0.0
  0
LINE
  5
C06
330
BB1
100
AcDbEntity
  8
0
  6
Continuous
 62
     7
100
AcDbLine
 10
11.35998751410703
 20
37.15635373598978
 30
0.0
 11
11.96399330864903
 21
36.55234794144782
 31
0.0
  0
LWPOLYLINE
  5
C07
330
BB1
100
AcDbEntity
  8
0
  6
Continuous
 62
     7
100
AcDbPolyline
 90
        9
 70
   128
 43
0.0
 10
64.53524623561971
 20
36.87853649505135
 10
64.72973456829651
 20
36.85888204130048
 10
64.91677478291261
 20
36.8017367937245
 10
65.08920399426367
 20
36.70928918463035
 10
65.24041885959087
 20
36.58507958426792
 10
65.3646284599533
 20
36.43386471894071
 10
65.45707606904745
 20
36.26143550758965
 10
65.51422131662341
 20
36.07439529297355
 10
65.53387577037428
 20
35.87990696029676
  0
LINE
  5
C08
330
BB1
100
AcDbEntity
  8
0
  6
Continuous
 62
     7
100
AcDbLine
 10
64.53524623561971
 20
36.87853649505135
 30
0.0
 11
64.81306347655817
 21
37.15635373598979
 31
0.0
  0
LINE
  5
C09
330
BB1
100
AcDbEntity
  8
0
  6
Continuous
 62
     7
100
AcDbLine
 10
65.81169301131274
 20
36.15772420123521
 30
0.0
 11
65.53387577037428
 21
35.87990696029676
 31
0.0
  0
LWPOLYLINE
  5
C0A
330
BB1
100
AcDbEntity
  8
0
  6
Continuous
 62
     7
100
AcDbPolyline
 90
        9
 70
   128
 43
0.0
 10
11.96409532582257
 20
4.310126515745061
 10
11.76960699314579
 20
4.329780969495921
 10
11.58256677852968
 20
4.386926217071895
 10
11.41013756717862
 20
4.479373826166042
 10
11.25892270185142
 20
4.603583426528473
 10
11.13471310148899
 20
4.754798291855678
 10
11.04226549239484
 20
4.927227503206729
 10
10.98512024481887
 20
5.114267717822844
 10
10.965465791068
 20
5.308756050499631
  0
LINE
  5
C0B
330
BB1
100
AcDbEntity
  8
0
  6
Continuous
 62
     7
100
AcDbLine
 10
11.96409532582257
 20
4.310126515745061
 30
0.0
 11
11.35998751410703
 21
3.706018704029467
 31
0.0
  0
LINE
  5
C0C
330
BB1
100
AcDbEntity
  8
0
  6
Continuous
 62
     7
100
AcDbLine
 10
10.36135797935245
 20
4.704648238784034
 30
0.0
 11
10.965465791068
 21
5.308756050499631
 31
0.0
  0
LWPOLYLINE
  5
C0D
330
BB1
100
AcDbEntity
  8
0
  6
Continuous
 62
     7
100
AcDbPolyline
 90
        9
 70
   128
 43
0.0
 10
65.53387577037428
 20
4.982465479722534
 10
65.51422131662341
 20
4.787977147045747
 10
65.45707606904745
 20
4.600936932429636
 10
65.3646284599533
 20
4.428507721078577
 10
65.24041885959086
 20
4.277292855751372
 10
65.08920399426367
 20
4.153083255388946
 10
64.91677478291262
 20
4.060635646294795
 10
64.72973456829651
 20
4.003490398718824
 10
64.53524623561971
 20
3.98383594496796
  0
LINE
  5
C0E
330
BB1
100
AcDbEntity
  8
0
  6
Continuous
 62
     7
100
AcDbLine
 10
65.53387577037428
 20
4.982465479722534
 30
0.0
 11
65.81169301131274
 21
4.704648238784049
 31
0.0
  0
LINE
  5
C0F
330
BB1
100
AcDbEntity
  8
0
  6
Continuous
 62
     7
100
AcDbLine
 10
64.81306347655817
 20
3.706018704029474
 30
0.0
 11
64.53524623561971
 21
3.98383594496796
 31
0.0
  0
LINE
  5
C10
330
BB1
100
AcDbEntity
  8
0
  6
Continuous
 62
     7
100
AcDbLine
 10
53.31274221236977
 20
36.87464458593759
 30
0.0
 11
64.53524623561971
 21
36.87853649505135
 31
0.0
  0
LWPOLYLINE
  5
C11
330
BB1
100
AcDbEntity
  8
0
  6
Continuous
 62
     7
100
AcDbPolyline
 90
       11
 70
   128
 43
0.0
 10
51.82326804054982
 20
36.7982582213514
 10
51.84740936230217
 20
36.81025370606408
 10
51.90628304469218
 20
36.82191442788769
 10
51.99850301065601
 20
36.83296585568351
 10
52.12189810366893
 20
36.84314780306659
 10
52.27356320379836
 20
36.85222055403548
 10
52.44992762363108
 20
36.85997050666289
 10
52.64683917381377
 20
36.86621520197656
 10
52.85966191903137
 20
36.87080761963405
 10
53.0833853229315
 20
36.87363963925756
 10
53.31274221236977
 20
36.87464458593759
  0
LINE
  5
C12
330
BB1
100
AcDbEntity
  8
0
  6
Continuous
 62
     7
100
AcDbLine
 10
51.69042791768726
 20
36.55223004958771
 30
0.0
 11
51.82326804054982
 21
36.7982582213514
 31
0.0
  0
LINE
  5
C13
330
BB1
100
AcDbEntity
  8
0
  6
Continuous
 62
     7
100
AcDbLine
 10
48.40544192299259
 20
36.55122338091545
 30
0.0
 11
51.69042791768726
 21
36.55223004958771
 31
0.0
  0
LINE
  5
C14
330
BB1
100
AcDbEntity
  8
0
  6
Continuous
 62
     7
100
AcDbLine
 10
15.21838016991717
 20
36.55122338091545
 30
0.0
 11
48.40544192299259
 21
36.55122338091545
 31
0.0
  0
LINE
  5
C15
330
BB1
100
AcDbEntity
  8
0
  6
Continuous
 62
     7
100
AcDbLine
 10
11.96399330864903
 20
36.55234794144782
 30
0.0
 11
15.21838016991717
 21
36.55122338091545
 31
0.0
  0
LINE
  5
C16
330
BB1
100
AcDbEntity
  8
0
  6
Continuous
 62
     7
100
AcDbLine
 10
10.96603306029482
 20
33.50070608312503
 30
0.0
 11
10.96536377389445
 21
35.55371840669323
 31
0.0
  0
LINE
  5
C17
330
BB1
100
AcDbEntity
  8
0
  6
Continuous
 62
     7
100
AcDbLine
 10
10.96603306029482
 20
7.206210836293664
 30
0.0
 11
10.96603306029482
 21
33.50070608312503
 31
0.0
  0
LINE
  5
C18
330
BB1
100
AcDbEntity
  8
0
  6
Continuous
 62
     7
100
AcDbLine
 10
10.965465791068
 20
5.308756050499631
 30
0.0
 11
10.96603306029482
 21
7.206210836293664
 31
0.0
  0
LINE
  5
C19
330
BB1
100
AcDbEntity
  8
0
  6
Continuous
 62
     7
100
AcDbLine
 10
65.53387577037428
 20
35.87990696029676
 30
0.0
 11
65.53387577037428
 21
4.982465479722534
 31
0.0
  0
LINE
  5
C1A
330
BB1
100
AcDbEntity
  8
0
  6
Continuous
 62
     7
100
AcDbLine
 10
15.3647180837407
 20
4.31136865100748
 30
0.0
 11
11.96409532582257
 21
4.310126515745061
 31
0.0
  0
LINE
  5
C1B
330
BB1
100
AcDbEntity
  8
0
  6
Continuous
 62
     7
100
AcDbLine
 10
48.24309812808069
 20
4.311368651007484
 30
0.0
 11
15.3647180837407
 21
4.31136865100748
 31
0.0
  0
LINE
  5
C1C
330
BB1
100
AcDbEntity
  8
0
  6
Continuous
 62
     7
100
AcDbLine
 10
51.69037189520608
 20
4.310246147552035
 30
0.0
 11
48.24309812808069
 21
4.311368651007484
 31
0.0
  0
LINE
  5
C1D
330
BB1
100
AcDbEntity
  8
0
  6
Continuous
 62
     7
100
AcDbLine
 10
51.82326804054982
 20
4.064114218667899
 30
0.0
 11
51.69037189520608
 21
4.310246147552035
 31
0.0
  0
LWPOLYLINE
  5
C1E
330
BB1
100
AcDbEntity
  8
0
  6
Continuous
 62
     7
100
AcDbPolyline
 90
       11
 70
   128
 43
0.0
 10
53.31274221236977
 20
3.987727854081697
 10
53.0833853229315
 20
3.988732800761734
 10
52.85966191903137
 20
3.991564820385246
 10
52.64683917381377
 20
3.996157238042737
 10
52.44992762363108
 20
4.002401933356402
 10
52.27356320379836
 20
4.010151885983813
 10
52.12189810366893
 20
4.019224636952699
 10
51.99850301065601
 20
4.029406584335781
 10
51.90628304469218
 20
4.040458012131619
 10
51.84740936230219
 20
4.052118733955232
 10
51.82326804054982
 20
4.064114218667899
  0
LINE
  5
C1F
330
BB1
100
AcDbEntity
  8
0
  6
Continuous
 62
     7
100
AcDbLine
 10
64.53524623561971
 20
3.98383594496796
 30
0.0
 11
53.31274221236977
 21
3.987727854081693
 31
0.0
  0
LINE
  5
C20
330
BB1
100
AcDbEntity
  8
0
  6
Continuous
 62
     7
100
AcDbLine
 10
68.35190717074489
 20
40.19632390909892
 30
0.0
 11
68.83034891987559
 21
40.67476565822967
 31
0.0
  0
ARC
  5
C21
330
BB1
100
AcDbEntity
  8
0
  6
Continuous
 62
     7
100
AcDbCircle
 10
68.83017414274424
 20
40.17483486742032
 30
0.0
 40
0.4999308213606179
100
AcDbArc
 50
0.0200310772207834
 51
89.9799692442294
  0
LINE
  5
C22
330
BB1
100
AcDbEntity
  8
0
  6
Continuous
 62
     7
100
AcDbLine
 10
69.3301049335526
 20
40.17500964455265
 30
0.0
 11
68.85166318442189
 21
39.69656789542191
 31
0.0
  0
LINE
  5
C23
330
BB1
100
AcDbEntity
  8
0
  6
Continuous
 62
     7
100
AcDbLine
 10
7.321387806243308
 20
39.69656789542191
 30
0.0
 11
6.842946057112609
 21
40.17500964455265
 31
0.0
  0
ARC
  5
C24
330
BB1
100
AcDbEntity
  8
0
  6
Continuous
 62
     7
100
AcDbCircle
 10
7.342876847919342
 20
40.17483486742231
 30
0.0
 40
0.4999308213586277
100
AcDbArc
 50
90.02003075558496
 51
179.979969040592
  0
LINE
  5
C25
330
BB1
100
AcDbEntity
  8
0
  6
Continuous
 62
     7
100
AcDbLine
 10
7.342702070789627
 20
40.67476565822967
 30
0.0
 11
7.821143819920326
 21
40.19632390909892
 31
0.0
  0
LINE
  5
C26
330
BB1
100
AcDbEntity
  8
0
  6
Continuous
 62
     7
100
AcDbLine
 10
68.85166318442189
 20
1.165804544597332
 30
0.0
 11
69.51761430377732
 21
0.4998534252419838
 31
0.0
  0
ARC
  5
C27
330
BB1
100
AcDbEntity
  8
0
  6
Continuous
 62
     7
100
AcDbCircle
 10
69.01768351297185
 20
0.5000282023706966
 30
0.0
 40
0.4999308213569895
100
AcDbArc
 50
270.0200307554408
 51
359.9799691618633
  0
LINE
  5
C28
330
BB1
100
AcDbEntity
  8
0
  6
Continuous
 62
     7
100
AcDbLine
 10
69.0178582901003
 20
0.0000974115649797
 30
0.0
 11
68.35190717074489
 21
0.6660485309203282
 31
0.0
  0
LINE
  5
C29
330
BB1
100
AcDbEntity
  8
0
  6
Continuous
 62
     7
100
AcDbLine
 10
7.821143819920301
 20
0.6660485309203282
 30
0.0
 11
7.155192700564885
 21
0.0000974115649797
 31
0.0
  0
ARC
  5
C2A
330
BB1
100
AcDbEntity
  8
0
  6
Continuous
 62
     7
100
AcDbCircle
 10
7.155367477693957
 20
0.5000282023710377
 30
0.0
 40
0.4999308213573414
100
AcDbArc
 50
180.0200307554956
 51
269.9799692444898
  0
LINE
  5
C2B
330
BB1
100
AcDbEntity
  8
0
  6
Continuous
 62
     7
100
AcDbLine
 10
6.655436686887888
 20
0.4998534252419838
 30
0.0
 11
7.321387806243308
 21
1.165804544597332
 31
0.0
  0
LINE
  5
C2C
330
BB1
100
AcDbEntity
  8
0
  6
Continuous
 62
     7
100
AcDbLine
 10
68.83034891987559
 20
40.67476565822967
 30
0.0
 11
7.342702070789627
 21
40.67476565822967
 31
0.0
  0
LINE
  5
C2D
330
BB1
100
AcDbEntity
  8
0
  6
Continuous
 62
     7
100
AcDbLine
 10
69.3301049335526
 20
11.3812112072756
 30
0.0
 11
69.3301049335526
 21
40.17500964455265
 31
0.0
  0
ARC
  5
C2E
330
BB1
100
AcDbEntity
  8
0
  6
Continuous
 62
     7
100
AcDbCircle
 10
72.14530353142605
 20
11.26899522794522
 30
0.0
 40
2.817434217774425
100
AcDbArc
 50
177.7173546407665
 51
185.8626453592151
  0
LINE
  5
C2F
330
BB1
100
AcDbEntity
  8
0
  6
Continuous
 62
     7
100
AcDbLine
 10
69.50823883526609
 20
10.98121120727562
 30
0.0
 11
69.34260555823425
 21
10.9812112072756
 31
0.0
  0
ARC
  5
C30
330
BB1
100
AcDbEntity
  8
0
  6
Continuous
 62
     7
100
AcDbCircle
 10
67.11070263542765
 20
10.75613795777165
 30
0.0
 40
2.408077614442281
100
AcDbArc
 50
358.2169679474211
 51
5.363032052545122
  0
LINE
  5
C31
330
BB1
100
AcDbEntity
  8
0
  6
Continuous
 62
     7
100
AcDbLine
 10
69.51761430377732
 20
0.4998534252419838
 30
0.0
 11
69.51761430377732
 21
10.68121120727561
 31
0.0
  0
LINE
  5
C32
330
BB1
100
AcDbEntity
  8
0
  6
Continuous
 62
     7
100
AcDbLine
 10
6.830445432430963
 20
10.9812112072756
 30
0.0
 11
6.664812155399122
 21
10.98121120727562
 31
0.0
  0
ARC
  5
C33
330
BB1
100
AcDbEntity
  8
0
  6
Continuous
 62
     7
100
AcDbCircle
 10
3.633730499138962
 20
11.28130887328572
 30
0.0
 40
3.210770152763484
100
AcDbArc
 50
354.6369679476601
 51
1.783032052340491
  0
LINE
  5
C34
330
BB1
100
AcDbEntity
  8
0
  6
Continuous
 62
     7
100
AcDbLine
 10
6.842946057112609
 20
40.17500964455265
 30
0.0
 11
6.842946057112609
 21
11.3812112072756
 31
0.0
  0
LINE
  5
C35
330
BB1
100
AcDbEntity
  8
0
  6
Continuous
 62
     7
100
AcDbLine
 10
6.655436686887888
 20
10.68121120727561
 30
0.0
 11
6.655436686887888
 21
0.4998534252419838
 31
0.0
  0
ARC
  5
C36
330
BB1
100
AcDbEntity
  8
0
  6
Continuous
 62
     7
100
AcDbCircle
 10
9.062348355369145
 20
10.75613795776771
 30
0.0
 40
2.408077614573655
100
AcDbArc
 50
174.6369679476542
 51
181.7830320523643
  0
LINE
  5
C37
330
BB1
100
AcDbEntity
  8
0
  6
Continuous
 62
     7
100
AcDbLine
 10
7.155192700564885
 20
0.0000974115649797
 30
0.0
 11
69.0178582901003
 21
0.0000974115649797
 31
0.0
  0
LWPOLYLINE
  5
C38
330
BB1
100
AcDbEntity
  8
0
  6
Continuous
 62
     7
100
AcDbPolyline
 90
        9
 70
   128
 43
0.0
 10
64.5418633349573
 20
35.87990696029676
 10
64.54167907318202
 20
36.06857405448494
 10
64.54126375804162
 20
36.25046464194814
 10
64.54063230674171
 20
36.41904561316637
 10
64.53980739962304
 20
36.56826191073771
 10
64.53881866553352
 20
36.69275401371167
 10
64.53770161762522
 20
36.78805043978427
 10
64.53649637780009
 20
36.85072835109964
 10
64.53524623561971
 20
36.87853649505135
  0
LINE
  5
C39
330
BB1
100
AcDbEntity
  8
0
  6
Continuous
 62
     7
100
AcDbLine
 10
64.5418633349573
 20
35.87990696029676
 30
0.0
 11
65.53387577037428
 21
35.87990696029676
 31
0.0
  0
LINE
  5
C3A
330
BB1
100
AcDbEntity
  8
0
  6
Continuous
 62
     7
100
AcDbLine
 10
64.5418633349573
 20
35.87990696029676
 30
0.0
 11
53.31935931170737
 21
35.87601505118302
 31
0.0
  0
LWPOLYLINE
  5
C3B
330
BB1
100
AcDbEntity
  8
0
  6
Continuous
 62
     7
100
AcDbPolyline
 90
        9
 70
   128
 43
0.0
 10
53.31935931170737
 20
35.87601505118302
 10
53.3191750499321
 20
36.0646821453712
 10
53.31875973479168
 20
36.2465727328344
 10
53.31812828349177
 20
36.41515370405263
 10
53.31730337637312
 20
36.56437000162397
 10
53.31631464228358
 20
36.68886210459793
 10
53.31519759437528
 20
36.78415853067054
 10
53.31399235455016
 20
36.8468364419859
 10
53.31274221236977
 20
36.87464458593759
  0
LINE
  5
C3C
330
BB1
100
AcDbEntity
  8
0
  6
Continuous
 62
     7
100
AcDbLine
 10
64.5418633349573
 20
4.982465479722542
 30
0.0
 11
64.5418633349573
 21
35.87990696029676
 31
0.0
  0
LINE
  5
C3D
330
BB1
100
AcDbEntity
  8
0
  6
Continuous
 62
     7
100
AcDbLine
 10
64.5418633349573
 20
4.982465479722542
 30
0.0
 11
65.53387577037428
 21
4.982465479722534
 31
0.0
  0
LWPOLYLINE
  5
C3E
330
BB1
100
AcDbEntity
  8
0
  6
Continuous
 62
     7
100
AcDbPolyline
 90
        9
 70
   128
 43
0.0
 10
64.5418633349573
 20
4.982465479722542
 10
64.54167907318202
 20
4.793798385534365
 10
64.54126375804162
 20
4.611907798071158
 10
64.54063230674171
 20
4.443326826852931
 10
64.53980739962304
 20
4.294110529281596
 10
64.53881866553352
 20
4.169618426307629
 10
64.53770161762522
 20
4.074322000235017
 10
64.53649637780009
 20
4.011644088919663
 10
64.53524623561971
 20
3.98383594496796
  0
LINE
  5
C3F
330
BB1
100
AcDbEntity
  8
0
  6
Continuous
 62
     7
100
AcDbLine
 10
53.31935931170737
 20
4.986357388836275
 30
0.0
 11
64.5418633349573
 21
4.982465479722542
 31
0.0
  0
LWPOLYLINE
  5
C40
330
BB1
100
AcDbEntity
  8
0
  6
Continuous
 62
     7
100
AcDbPolyline
 90
        9
 70
   128
 43
0.0
 10
53.31935931170737
 20
4.986357388836275
 10
53.3191750499321
 20
4.797690294648102
 10
53.31875973479168
 20
4.615799707184891
 10
53.31812828349177
 20
4.447218735966664
 10
53.31730337637312
 20
4.298002438395329
 10
53.31631464228358
 20
4.173510335421358
 10
53.31519759437528
 20
4.078213909348754
 10
53.31399235455016
 20
4.015535998033399
 10
53.31274221236977
 20
3.987727854081693
  0
LWPOLYLINE
  5
C41
330
BB1
100
AcDbEntity
  8
0
  6
Continuous
 62
     7
100
AcDbPolyline
 90
        9
 70
   128
 43
0.0
 10
53.31935931170737
 20
35.87601505118303
 10
53.22401769010892
 20
35.87447150977534
 10
53.13230103150958
 20
35.87009611447145
 10
53.04757952259581
 20
35.86304964194189
 10
52.97296630885023
 20
35.85359101928091
 10
52.91120310004991
 20
35.84206780956647
 10
52.86455942440477
 20
35.82890344043493
 10
52.83474923330676
 20
35.81458164496446
 10
52.82286792110072
 20
35.79962868659683
  0
LWPOLYLINE
  5
C42
330
BB1
100
AcDbEntity
  8
0
  6
Continuous
 62
     7
100
AcDbPolyline
 90
        9
 70
   128
 43
0.0
 10
52.82286792110072
 20
35.79962868659683
 10
52.80340853931907
 20
35.99427061362599
 10
52.74635364191984
 20
36.18144660733574
 10
52.65389169911609
 20
36.35397710724105
 10
52.52956929878898
 20
36.50524431404491
 10
52.37815510905189
 20
36.62944603036545
 10
52.205456965151
 20
36.72181821719855
 10
52.01809909674963
 20
36.77881772945728
 10
51.82326804054982
 20
36.7982582213514
  0
LWPOLYLINE
  5
C43
330
BB1
100
AcDbEntity
  8
0
  6
Continuous
 62
     7
100
AcDbPolyline
 90
        9
 70
   128
 43
0.0
 10
52.82286792110072
 20
5.062743753422473
 10
52.83474923330676
 20
5.047790795054833
 10
52.86455942440477
 20
5.033468999584368
 10
52.91120310004991
 20
5.020304630452834
 10
52.97296630885023
 20
5.008781420738394
 10
53.04757952259581
 20
4.999322798077407
 10
53.13230103150958
 20
4.992276325547841
 10
53.22401769010892
 20
4.987900930243959
 10
53.31935931170737
 20
4.986357388836275
  0
LWPOLYLINE
  5
C44
330
BB1
100
AcDbEntity
  8
0
  6
Continuous
 62
     7
100
AcDbPolyline
 90
        9
 70
   128
 43
0.0
 10
51.82326804054982
 20
4.064114218667899
 10
52.01809909674963
 20
4.083554710562026
 10
52.205456965151
 20
4.140554222820753
 10
52.37815510905189
 20
4.232926409653856
 10
52.52956929878898
 20
4.357128125974398
 10
52.65389169911609
 20
4.508395332778253
 10
52.74635364191984
 20
4.680925832683556
 10
52.80340853931908
 20
4.868101826393314
 10
52.82286792110072
 20
5.062743753422481
  0
LINE
  5
C45
330
BB1
100
AcDbEntity
  8
0
  6
Continuous
 62
     7
100
AcDbLine
 10
53.31935931170737
 20
35.87601505118302
 30
0.0
 11
53.31935931170737
 21
4.986357388836275
 31
0.0
  0
LINE
  5
C46
330
BB1
100
AcDbEntity
  8
0
  6
Continuous
 62
     7
100
AcDbLine
 10
52.82286792110072
 20
5.062743753422481
 30
0.0
 11
52.82286792110072
 21
35.79962868659683
 31
0.0
  0
LINE
  5
C47
330
BB1
100
AcDbEntity
  8
0
  6
Continuous
 62
     7
100
AcDbLine
 10
52.82286792110072
 20
35.79962868659683
 30
0.0
 11
52.69002779823816
 21
35.55360051483312
 31
0.0
  0
LWPOLYLINE
  5
C48
330
BB1
100
AcDbEntity
  8
0
  6
Continuous
 62
     7
100
AcDbPolyline
 90
        9
 70
   128
 43
0.0
 10
52.69002779823816
 20
35.55360051483312
 10
52.67056841645652
 20
35.74824244186228
 10
52.61351351905727
 20
35.93541843557204
 10
52.52105157625354
 20
36.10794893547734
 10
52.39672917592642
 20
36.25921614228121
 10
52.24531498618933
 20
36.38341785860174
 10
52.07261684228844
 20
36.47579004543485
 10
51.88525897388706
 20
36.53278955769357
 10
51.69042791768726
 20
36.55223004958771
  0
LINE
  5
C49
330
BB1
100
AcDbEntity
  8
0
  6
Continuous
 62
     7
100
AcDbLine
 10
52.68967960058001
 20
33.61510346848572
 30
0.0
 11
52.68967960058001
 21
7.090695561173745
 31
0.0
  0
LINE
  5
C4A
330
BB1
100
AcDbEntity
  8
0
  6
Continuous
 62
     7
100
AcDbLine
 10
52.69002779823816
 20
35.55360051483312
 30
0.0
 11
52.68967960058001
 21
33.61510346848572
 31
0.0
  0
LINE
  5
C4B
330
BB1
100
AcDbEntity
  8
0
  6
Continuous
 62
     7
100
AcDbLine
 10
52.68997177575698
 20
5.308875682306567
 30
0.0
 11
52.82286792110072
 21
5.062743753422481
 31
0.0
  0
LINE
  5
C4C
330
BB1
100
AcDbEntity
  8
0
  6
Continuous
 62
     7
100
AcDbLine
 10
52.68967960058001
 20
7.090695561173745
 30
0.0
 11
52.68997177575698
 21
5.308875682306567
 31
0.0
  0
LWPOLYLINE
  5
C4D
330
BB1
100
AcDbEntity
  8
0
  6
Continuous
 62
     7
100
AcDbPolyline
 90
        9
 70
   128
 43
0.0
 10
51.69037189520608
 20
4.310246147552035
 10
51.88520295140587
 20
4.329686639446162
 10
52.07256081980723
 20
4.386686151704886
 10
52.24525896370812
 20
4.479058338537978
 10
52.39667315344523
 20
4.60326005485852
 10
52.52099555377234
 20
4.754527261662367
 10
52.61345749657607
 20
4.927057761567652
 10
52.67051239397533
 20
5.11423375527741
 10
52.68997177575698
 20
5.308875682306567
  0
LWPOLYLINE
  5
C4E
330
BB1
100
AcDbEntity
  8
0
  6
Continuous
 62
     7
100
AcDbPolyline
 90
        9
 70
   128
 43
0.0
 10
51.70210669036976
 20
35.56628781296357
 10
51.70175809631766
 20
35.7531583423756
 10
51.7010092982879
 20
35.93298010062865
 10
51.69988674528537
 20
36.09940143297213
 10
51.69843008806859
 20
36.24654401379932
 10
51.69669077860763
 20
36.36921048055742
 10
51.69473025270045
 20
36.46306801471604
 10
51.69261775994069
 20
36.52480138535701
 10
51.69042791768726
 20
36.55223004958771
  0
LWPOLYLINE
  5
C4F
330
BB1
100
AcDbEntity
  8
0
  6
Continuous
 62
     7
100
AcDbPolyline
 90
        9
 70
   128
 43
0.0
 10
52.69002779823816
 20
35.55360051483312
 10
52.66640360211439
 20
35.55601541668538
 10
52.60715173482598
 20
35.55834216334028
 10
52.51443516628839
 20
35.5604958176769
 10
52.39163848432291
 20
35.56239776125248
 10
52.24324434139204
 20
35.5639785642427
 10
52.07466981684674
 20
35.56518051995465
 10
51.89206866822731
 20
35.56595975139066
 10
51.70210669036976
 20
35.56628781296357
  0
LINE
  5
C50
330
BB1
100
AcDbEntity
  8
0
  6
Continuous
 62
     7
100
AcDbLine
 10
52.68967960058001
 20
33.61510346848572
 30
0.0
 11
51.71110795827036
 21
33.61510346848572
 31
0.0
  0
LINE
  5
C51
330
BB1
100
AcDbEntity
  8
0
  6
Continuous
 62
     7
100
AcDbLine
 10
51.71110795827036
 20
33.61510346848572
 30
0.0
 11
51.70210669036976
 21
35.56628781296357
 31
0.0
  0
LINE
  5
C52
330
BB1
100
AcDbEntity
  8
0
  6
Continuous
 62
     7
100
AcDbLine
 10
52.68967960058001
 20
7.090695561173745
 30
0.0
 11
51.71110795827037
 21
7.090695561173752
 31
0.0
  0
LWPOLYLINE
  5
C53
330
BB1
100
AcDbEntity
  8
0
  6
Continuous
 62
     7
100
AcDbPolyline
 90
        9
 70
   128
 43
0.0
 10
51.7027819737179
 20
5.297293658244317
 10
51.89263935438349
 20
5.297594510901035
 10
52.07512006364564
 20
5.29830678660544
 10
52.24356905063676
 20
5.299404508743009
 10
52.39184299981649
 20
5.3008476435113
 10
52.51453437699598
 20
5.302583559948221
 10
52.60716864149943
 20
5.304548949377274
 10
52.66636743215731
 20
5.306672134267834
 10
52.68997177575698
 20
5.308875682306567
  0
LINE
  5
C54
330
BB1
100
AcDbEntity
  8
0
  6
Continuous
 62
     7
100
AcDbLine
 10
51.7027819737179
 20
5.297293658244317
 30
0.0
 11
51.71110795827037
 21
7.090695561173752
 31
0.0
  0
LWPOLYLINE
  5
C55
330
BB1
100
AcDbEntity
  8
0
  6
Continuous
 62
     7
100
AcDbPolyline
 90
        9
 70
   128
 43
0.0
 10
51.69037189520608
 20
4.310246147552035
 10
51.69270038420378
 20
4.337707668673484
 10
51.69494650594463
 20
4.399522989743108
 10
51.69703080680591
 20
4.493505474520887
 10
51.69887955736722
 20
4.616330615367186
 10
51.70042736049222
 20
4.763653633358071
 10
51.70161946466712
 20
4.930263169164593
 10
51.70241370076384
 20
5.110265628082014
 10
51.7027819737179
 20
5.297293658244317
  0
LINE
  5
C56
330
BB1
100
AcDbEntity
  8
0
  6
Continuous
 62
     7
100
AcDbLine
 10
51.71110795827037
 20
7.090695561173752
 30
0.0
 11
51.71110795827036
 21
33.61510346848572
 31
0.0
  0
LWPOLYLINE
  5
C57
330
BB1
100
AcDbEntity
  8
0
  6
Continuous
 62
     7
100
AcDbPolyline
 90
        9
 70
   128
 43
0.0
 10
11.96399330864903
 20
36.55234794144782
 10
11.96152363045628
 20
36.52491165819909
 10
11.95914121636831
 20
36.46315903774314
 10
11.95693024708249
 20
36.36927205956112
 10
11.95496884543119
 20
36.2465681449774
 10
11.95332631597388
 20
36.09938293872902
 10
11.95206069617596
 20
35.93291711242449
 10
11.9512167057013
 20
35.7530526029699
 10
11.95082416627867
 20
35.56614477903001
  0
LWPOLYLINE
  5
C58
330
BB1
100
AcDbEntity
  8
0
  6
Continuous
 62
     7
100
AcDbPolyline
 90
        9
 70
   128
 43
0.0
 10
10.96536377389445
 20
35.55371840669323
 10
10.99277801351842
 20
35.55604776569726
 10
11.05447560152134
 20
35.55829489965127
 10
11.14827864808389
 20
35.56038048600277
 10
11.27087595893179
 20
35.56223090473795
 10
11.41793991861338
 20
35.56378083712627
 10
11.58427925286738
 20
35.56497557143462
 10
11.76402227765633
 20
35.56577293422038
 10
11.95082416627867
 20
35.56614477903001
  0
LINE
  5
C59
330
BB1
100
AcDbEntity
  8
0
  6
Continuous
 62
     7
100
AcDbLine
 10
15.21838016991717
 20
35.58111937915366
 30
0.0
 11
11.95082416627867
 21
35.56614477903001
 31
0.0
  0
LINE
  5
C5A
330
BB1
100
AcDbEntity
  8
0
  6
Continuous
 62
     7
100
AcDbLine
 10
15.21838016991717
 20
35.58111937915366
 30
0.0
 11
15.21838016991717
 21
36.55122338091545
 31
0.0
  0
LINE
  5
C5B
330
BB1
100
AcDbEntity
  8
0
  6
Continuous
 62
     7
100
AcDbLine
 10
11.95082416627867
 20
35.56614477903001
 30
0.0
 11
11.9413355584428
 21
33.50070608312504
 31
0.0
  0
LINE
  5
C5C
330
BB1
100
AcDbEntity
  8
0
  6
Continuous
 62
     7
100
AcDbLine
 10
10.96603306029482
 20
33.50070608312503
 30
0.0
 11
11.9413355584428
 21
33.50070608312504
 31
0.0
  0
LWPOLYLINE
  5
C5D
330
BB1
100
AcDbEntity
  8
0
  6
Continuous
 62
     7
100
AcDbPolyline
 90
        9
 70
   128
 43
0.0
 10
10.965465791068
 20
5.308756050499631
 10
10.99285774672952
 20
5.306620879760895
 10
11.05449966456384
 20
5.304561004211119
 10
11.14821778873662
 20
5.302649063811077
 10
11.27070722014086
 20
5.300952481699855
 10
11.41764846117631
 20
5.299531086568585
 10
11.58385973958106
 20
5.298435002846673
 10
11.76347973972996
 20
5.297702883101568
 10
11.95017429751836
 20
5.297360544984993
  0
LWPOLYLINE
  5
C5E
330
BB1
100
AcDbEntity
  8
0
  6
Continuous
 62
     7
100
AcDbPolyline
 90
        9
 70
   128
 43
0.0
 10
11.96409532582257
 20
4.310126515745061
 10
11.96148304906425
 20
4.33759343097369
 10
11.95896320112288
 20
4.399422483259737
 10
11.95662494045513
 20
4.49342600770953
 10
11.95455100051052
 20
4.616277926974039
 10
11.95281476241717
 20
4.763631436097373
 10
11.95147765857594
 20
4.930272803234238
 10
11.95058699902997
 20
5.110305844386338
 10
11.95017429751836
 20
5.297360544984993
  0
LINE
  5
C5F
330
BB1
100
AcDbEntity
  8
0
  6
Continuous
 62
     7
100
AcDbLine
 10
11.95017429751836
 20
5.297360544984993
 30
0.0
 11
15.3647180837407
 21
5.281748484935508
 31
0.0
  0
LINE
  5
C60
330
BB1
100
AcDbEntity
  8
0
  6
Continuous
 62
     7
100
AcDbLine
 10
15.3647180837407
 20
4.31136865100748
 30
0.0
 11
15.3647180837407
 21
5.281748484935508
 31
0.0
  0
LINE
  5
C61
330
BB1
100
AcDbEntity
  8
0
  6
Continuous
 62
     7
100
AcDbLine
 10
10.96603306029482
 20
7.206210836293664
 30
0.0
 11
11.9413355584428
 21
7.206210836293656
 31
0.0
  0
LINE
  5
C62
330
BB1
100
AcDbEntity
  8
0
  6
Continuous
 62
     7
100
AcDbLine
 10
11.9413355584428
 20
7.206210836293656
 30
0.0
 11
11.95017429751836
 21
5.297360544984993
 31
0.0
  0
LINE
  5
C63
330
BB1
100
AcDbEntity
  8
0
  6
Continuous
 62
     7
100
AcDbLine
 10
51.70210669036976
 20
35.56628781296357
 30
0.0
 11
48.40544192299259
 21
35.58111937915367
 31
0.0
  0
LINE
  5
C64
330
BB1
100
AcDbEntity
  8
0
  6
Continuous
 62
     7
100
AcDbLine
 10
48.40544192299259
 20
35.58111937915367
 30
0.0
 11
48.40544192299259
 21
36.55122338091545
 31
0.0
  0
LINE
  5
C65
330
BB1
100
AcDbEntity
  8
0
  6
Continuous
 62
     7
100
AcDbLine
 10
48.24309812808069
 20
4.311368651007484
 30
0.0
 11
48.24309812808069
 21
5.281748484935516
 31
0.0
  0
LINE
  5
C66
330
BB1
100
AcDbEntity
  8
0
  6
Continuous
 62
     7
100
AcDbLine
 10
48.24309812808069
 20
5.281748484935516
 30
0.0
 11
51.7027819737179
 21
5.297293658244317
 31
0.0
  0
LINE
  5
C67
330
BB1
100
AcDbEntity
  8
0
  6
Continuous
 62
     7
100
AcDbLine
 10
11.9413355584428
 20
33.50070608312504
 30
0.0
 11
11.9413355584428
 21
7.206210836293656
 31
0.0
  0
LINE
  5
C68
330
BB1
100
AcDbEntity
  8
0
  6
Continuous
 62
     7
100
AcDbLine
 10
48.40544192299259
 20
35.58111937915367
 30
0.0
 11
15.21838016991717
 21
35.58111937915366
 31
0.0
  0
LINE
  5
C69
330
BB1
100
AcDbEntity
  8
0
  6
Continuous
 62
     7
100
AcDbLine
 10
15.3647180837407
 20
5.281748484935508
 30
0.0
 11
48.24309812808069
 21
5.281748484935516
 31
0.0
  0
LINE
  5
C6A
330
BB1
100
AcDbEntity
  8
0
  6
Continuous
 62
     7
100
AcDbLine
 10
29.30984217784055
 20
24.05924106686979
 30
0.0
 11
15.21838016991717
 21
35.58111937915366
 31
0.0
  0
ARC
  5
C6B
330
BB1
100
AcDbEntity
  8
0
  6
Continuous
 62
     7
100
AcDbCircle
 10
30.87298177424453
 20
20.41962974077737
 30
0.0
 40
3.961082680639997
100
AcDbArc
 50
113.2425465085496
 51
168.6815240249423
  0
LINE
  5
C6C
330
BB1
100
AcDbEntity
  8
0
  6
Continuous
 62
     7
100
AcDbLine
 10
11.9413355584428
 20
33.50070608312504
 30
0.0
 11
26.9889365211556
 21
21.19704113432867
 31
0.0
  0
LINE
  5
C6D
330
BB1
100
AcDbEntity
  8
0
  6
Continuous
 62
     7
100
AcDbLine
 10
26.9951839916968
 20
19.63526519813966
 30
0.0
 11
11.9413355584428
 21
7.206210836293656
 31
0.0
  0
ARC
  5
C6E
330
BB1
100
AcDbEntity
  8
0
  6
Continuous
 62
     7
100
AcDbCircle
 10
30.8727380920576
 20
20.44373066055943
 30
0.0
 40
3.960939560906075
100
AcDbArc
 50
191.7773760197039
 51
246.8705143237888
  0
LINE
  5
C6F
330
BB1
100
AcDbEntity
  8
0
  6
Continuous
 62
     7
100
AcDbLine
 10
15.3647180837407
 20
5.281748484935508
 30
0.0
 11
29.31683973922279
 21
16.80117352019817
 31
0.0
  0
LINE
  5
C70
330
BB1
100
AcDbEntity
  8
0
  6
Continuous
 62
     7
100
AcDbLine
 10
34.69798432508468
 20
21.0758276947801
 30
0.0
 11
51.71110795827036
 21
33.61510346848572
 31
0.0
  0
ARC
  5
C71
330
BB1
100
AcDbEntity
  8
0
  6
Continuous
 62
     7
100
AcDbCircle
 10
30.79215305788307
 20
20.42361867379005
 30
0.0
 40
3.959910920072623
100
AcDbArc
 50
9.479978827466535
 51
62.6434810946208
  0
LINE
  5
C72
330
BB1
100
AcDbEntity
  8
0
  6
Continuous
 62
     7
100
AcDbLine
 10
48.40544192299259
 20
35.58111937915367
 30
0.0
 11
32.61183468598485
 21
23.94067046005355
 31
0.0
  0
ARC
  5
C73
330
BB1
100
AcDbEntity
  8
0
  6
Continuous
 62
     7
100
AcDbCircle
 10
30.79244422648137
 20
20.43968644394192
 30
0.0
 40
3.959680613982089
100
AcDbArc
 50
297.2550820391964
 51
350.0634944468481
  0
LINE
  5
C74
330
BB1
100
AcDbEntity
  8
0
  6
Continuous
 62
     7
100
AcDbLine
 10
51.71110795827037
 20
7.090695561173752
 30
0.0
 11
34.69272797983717
 21
19.75641694509511
 31
0.0
  0
LINE
  5
C75
330
BB1
100
AcDbEntity
  8
0
  6
Continuous
 62
     7
100
AcDbLine
 10
32.6057909226236
 20
16.91962333025552
 30
0.0
 11
48.24309812808069
 21
5.281748484935516
 31
0.0
  0
ARC
  5
C76
330
BB1
100
AcDbEntity
  8
0
  6
Continuous
 62
     7
100
AcDbCircle
 10
30.7500720590773
 20
20.43118609604598
 30
0.0
 40
3.838316619858314
100
AcDbArc
 50
168.4905890874432
 51
191.9678016164436
  0
ARC
  5
C77
330
BB1
100
AcDbEntity
  8
0
  6
Continuous
 62
     7
100
AcDbCircle
 10
30.91413744571861
 20
20.43118615883971
 30
0.0
 40
3.838366829310079
100
AcDbArc
 50
349.8750211659751
 51
9.668464734607606
  0
ARC
  5
C78
330
BB1
100
AcDbEntity
  8
0
  6
Continuous
 62
     7
100
AcDbCircle
 10
30.83650767949889
 20
20.53755286255967
 30
0.0
 40
3.838358420253494
100
AcDbArc
 50
62.45000213938717
 51
113.436919104657
  0
ARC
  5
C79
330
BB1
100
AcDbEntity
  8
0
  6
Continuous
 62
     7
100
AcDbCircle
 10
30.83650805342136
 20
20.32587500841417
 30
0.0
 40
3.838347608830025
100
AcDbArc
 50
246.67680249769
 51
297.4483680530762
  0
LWPOLYLINE
  5
C7A
330
BB1
100
AcDbEntity
  8
0
  6
Continuous
 62
     7
100
AcDbPolyline
 90
        9
 70
   128
 43
0.0
 10
29.30984217784055
 20
24.05924106686979
 10
29.34321728404825
 20
23.98241185511751
 10
29.37635711819496
 20
23.90632532348666
 10
29.40902806672954
 20
23.83151783087294
 10
29.44099982142924
 20
23.75851671980691
 10
29.47204700291772
 20
23.68783659904359
 10
29.50195074943822
 20
23.61997571591675
 10
29.5305002596818
 20
23.55541244403022
 10
29.55749427879478
 20
23.49460191104547
  0
ARC
  5
C7B
330
BB1
100
AcDbEntity
  8
0
  6
Continuous
 62
     7
100
AcDbCircle
 10
30.91982946453287
 20
20.38634913058338
 30
0.0
 40
3.393698941501781
100
AcDbArc
 50
113.6676534552013
 51
168.3390325623571
  0
LWPOLYLINE
  5
C7C
330
BB1
100
AcDbEntity
  8
0
  6
Continuous
 62
     7
100
AcDbPolyline
 90
        9
 70
   128
 43
0.0
 10
26.9889365211556
 20
21.19704113432867
 10
27.07144202936651
 20
21.18021514988735
 10
27.15319397048942
 20
21.1635089727144
 10
27.23361024029242
 20
21.14704155700586
 10
27.31211824502029
 20
21.1309301568873
 10
27.38815897847498
 20
21.11528949152093
 10
27.4611910023477
 20
21.10023092826232
 10
27.53069430146114
 20
21.08586168968358
 10
27.59617398647092
 20
21.07228409010862
  0
ARC
  5
C7D
330
BB1
100
AcDbEntity
  8
0
  6
Continuous
 62
     7
100
AcDbCircle
 10
30.91940243079987
 20
20.47747958015538
 30
0.0
 40
3.393621126837814
100
AcDbArc
 50
192.1205123334597
 51
246.4489626840519
  0
LWPOLYLINE
  5
C7E
330
BB1
100
AcDbEntity
  8
0
  6
Continuous
 62
     7
100
AcDbPolyline
 90
        9
 70
   128
 43
0.0
 10
29.56342749207969
 20
17.36653176347912
 10
29.53655232649044
 20
17.30564278116463
 10
29.50812726081144
 20
17.24099588412637
 10
29.47835281160117
 20
17.17304710555193
 10
29.44743901426118
 20
17.10227577081505
 10
29.41560394140115
 20
17.02918111621086
 10
29.38307216450733
 20
16.9542787672351
 10
29.35007316976692
 20
16.87809710125041
 10
29.31683973922279
 20
16.80117352019817
  0
LWPOLYLINE
  5
C7F
330
BB1
100
AcDbEntity
  8
0
  6
Continuous
 62
     7
100
AcDbPolyline
 90
        9
 70
   128
 43
0.0
 10
27.60143146824991
 20
19.76492569153017
 10
27.53606070836601
 20
19.75081467619405
 10
27.46667216855716
 20
19.73588081561705
 10
27.3937599750688
 20
19.72023045607016
 10
27.31784334661507
 20
19.70397504612144
 10
27.23946289694408
 20
19.68723034299404
 10
27.15917678504605
 20
19.67011558824153
 10
27.07755674041898
 20
19.65275265861085
 10
26.9951839916968
 20
19.63526519813966
  0
LWPOLYLINE
  5
C80
330
BB1
100
AcDbEntity
  8
0
  6
Continuous
 62
     7
100
AcDbPolyline
 90
        9
 70
   128
 43
0.0
 10
34.69798432508468
 20
21.0758276947801
 10
34.61470687212029
 20
21.06162092488901
 10
34.5321768142308
 20
21.04751595260575
 10
34.45098551472617
 20
21.03361384611455
 10
34.37171474413755
 20
21.02001421997913
 10
34.29493251158158
 20
21.00681452136154
 10
34.2211889947311
 20
20.99410933177141
 10
34.15101259755588
 20
20.9819896893488
 10
34.08490616408115
 20
20.97054243653684
  0
ARC
  5
C81
330
BB1
100
AcDbEntity
  8
0
  6
Continuous
 62
     7
100
AcDbCircle
 10
30.74146653633752
 20
20.39319203894514
 30
0.0
 40
3.39292234304968
100
AcDbArc
 50
9.797305828461261
 51
62.20631459342873
  0
LWPOLYLINE
  5
C82
330
BB1
100
AcDbEntity
  8
0
  6
Continuous
 62
     7
100
AcDbPolyline
 90
        9
 70
   128
 43
0.0
 10
32.61183468598485
 20
23.94067046005355
 10
32.57297604865921
 20
23.86633832883128
 10
32.53439203515732
 20
23.79273311875174
 10
32.4963553284669
 20
23.72037501646146
 10
32.45913474361988
 20
23.6497753949807
 10
32.42299332790862
 20
23.58143319970077
 10
32.38818650186408
 20
23.51583142221075
 10
32.35496025413436
 20
23.4534336868737
 10
32.32354940302054
 20
23.39468097427596
  0
ARC
  5
C83
330
BB1
100
AcDbEntity
  8
0
  6
Continuous
 62
     7
100
AcDbCircle
 10
30.74192110393744
 20
20.47058360154777
 30
0.0
 40
3.392755096996545
100
AcDbArc
 50
297.6883899695782
 51
349.7459111823143
  0
LWPOLYLINE
  5
C84
330
BB1
100
AcDbEntity
  8
0
  6
Continuous
 62
     7
100
AcDbPolyline
 90
        9
 70
   128
 43
0.0
 10
34.08048710463795
 20
19.86662647793521
 10
34.14650159782621
 20
19.85464398247849
 10
34.21658105091195
 20
19.84195758977078
 10
34.29022327289263
 20
19.82865821079942
 10
34.36690054188038
 20
19.81484114922565
 10
34.44606338676936
 20
19.80060541843642
 10
34.52714452475857
 20
19.78605303201205
 10
34.60956292651376
 20
19.77128827269455
 10
34.69272797983717
 20
19.75641694509511
  0
LWPOLYLINE
  5
C85
330
BB1
100
AcDbEntity
  8
0
  6
Continuous
 62
     7
100
AcDbPolyline
 90
        9
 70
   128
 43
0.0
 10
32.31840759664323
 20
17.4663403546531
 10
32.34971698464953
 20
17.40750781811975
 10
32.38283731758162
 20
17.34502520068618
 10
32.4175343697337
 20
17.27933437699175
 10
32.45356276490297
 20
17.21089990998568
 10
32.4906677116806
 20
17.14020576555592
 10
32.5285868053267
 20
17.06775188994125
 10
32.56705188348641
 20
16.99405067413093
 10
32.6057909226236
 20
16.91962333025552
  0
ARC
  5
C86
330
BB1
100
AcDbEntity
  8
0
  6
Continuous
 62
     7
100
AcDbCircle
 10
30.83650683608312
 20
20.56525253385624
 30
0.0
 40
3.196398112773221
100
AcDbArc
 50
62.27525070455226
 51
113.5870446099036
  0
ARC
  5
C87
330
BB1
100
AcDbEntity
  8
0
  6
Continuous
 62
     7
100
AcDbCircle
 10
30.83650632846094
 20
20.2984607336509
 30
0.0
 40
3.196394407731105
100
AcDbArc
 50
246.5289342882384
 51
297.6207226202045
  0
ARC
  5
C88
330
BB1
100
AcDbEntity
  8
0
  6
Continuous
 62
     7
100
AcDbCircle
 10
30.72733834149408
 20
20.43118615316027
 30
0.0
 40
3.196122147685696
100
AcDbArc
 50
168.4287605886163
 51
192.0320616209616
  0
LWPOLYLINE
  5
C89
330
BB1
100
AcDbEntity
  8
0
  6
Continuous
 62
     7
100
AcDbPolyline
 90
        3
 70
   128
 43
0.0
 10
34.08048710463795
 20
19.86662647793521
 10
34.13067451334216
 20
20.40996876949615
 10
34.08490616408115
 20
20.97054243653684
  0
CIRCLE
  5
C8A
330
BB1
100
AcDbEntity
  8
0
  6
Continuous
 62
     7
100
AcDbCircle
 10
30.83650050806669
 20
20.43118622000967
 30
0.0
 40
2.528606195156726
  0
CIRCLE
  5
C8B
330
BB1
100
AcDbEntity
  8
0
  6
Continuous
 62
     7
100
AcDbCircle
 10
30.83650050806669
 20
20.43118622000967
 30
0.0
 40
2.350000000000001
  0
LINE
  5
C8C
330
BB1
100
AcDbEntity
  8
0
  6
Continuous
 62
     7
100
AcDbLine
 10
69.3302025280818
 20
40.17500964455265
 30
0.0
 11
69.3301049335526
 21
40.17500964455265
 31
0.0
  0
LINE
  5
C8D
330
BB1
100
AcDbEntity
  8
0
  6
Continuous
 62
     7
100
AcDbLine
 10
68.83034891987559
 20
40.67486325275886
 30
0.0
 11
68.83034891987559
 21
40.67476565822967
 31
0.0
  0
LINE
  5
C8E
330
BB1
100
AcDbEntity
  8
0
  6
Continuous
 62
     7
100
AcDbLine
 10
6.842946057112609
 20
40.17500964455265
 30
0.0
 11
6.842848462583415
 21
40.17500964455265
 31
0.0
  0
LINE
  5
C8F
330
BB1
100
AcDbEntity
  8
0
  6
Continuous
 62
     7
100
AcDbLine
 10
7.342702070789627
 20
40.67476565822967
 30
0.0
 11
7.342702070789627
 21
40.67486325275886
 31
0.0
  0
LINE
  5
C90
330
BB1
100
AcDbEntity
  8
0
  6
Continuous
 62
     7
100
AcDbLine
 10
69.3302025280818
 20
11.3812112072756
 30
0.0
 11
69.3301049335526
 21
11.3812112072756
 31
0.0
  0
LINE
  5
C91
330
BB1
100
AcDbEntity
  8
0
  6
Continuous
 62
     7
100
AcDbLine
 10
6.842946057112609
 20
11.3812112072756
 30
0.0
 11
6.842848462583415
 21
11.3812112072756
 31
0.0
  0
LWPOLYLINE
  5
C92
330
BB1
100
AcDbEntity
  8
0
  6
Continuous
 62
     7
100
AcDbPolyline
 90
        3
 70
   128
 43
0.0
 10
6.830445432430963
 20
10.9812112072756
 10
6.834286501098802
 20
11.02022927167883
 10
6.83448780185796
 20
11.02122845945949
  0
LINE
  5
C93
330
BB1
100
AcDbEntity
  8
0
  6
Continuous
 62
     7
100
AcDbLine
 10
69.33889981077872
 20
11.01954235232052
 30
0.0
 11
69.34260555823425
 21
10.9812112072756
 31
0.0
  0
LWPOLYLINE
  5
C94
330
BB1
100
AcDbEntity
  8
0
  6
Continuous
 62
     7
100
AcDbPolyline
 90
        9
 70
   128
 43
0.0
 10
6.664812155399122
 20
10.98121120727562
 10
6.668653224066968
 20
11.02022927167885
 10
6.680028819955683
 20
11.05774789374864
 10
6.698501785294777
 20
11.09232525387954
 10
6.723362214386018
 20
11.12263256351293
 10
6.75365473488134
 20
11.14750512973613
 10
6.788215222206329
 20
11.16598711377788
 10
6.825715536214833
 20
11.17736826335627
 10
6.841246221432189
 20
11.17982817315675
  0
LWPOLYLINE
  5
C95
330
BB1
100
AcDbEntity
  8
0
  6
Continuous
 62
     7
100
AcDbPolyline
 90
        9
 70
   128
 43
0.0
 10
69.33180476903469
 20
11.17982817318021
 10
69.34733545445038
 20
11.17736826335626
 10
69.38483576845889
 20
11.16598711377788
 10
69.41939625578388
 20
11.14750512973613
 10
69.44968877627919
 20
11.12263256351293
 10
69.47454920537042
 20
11.09232525387954
 10
69.49302217070954
 20
11.05774789374864
 10
69.50439776659824
 20
11.02022927167885
 10
69.50823883526609
 20
10.98121120727562
  0
LINE
  5
C96
330
BB1
100
AcDbEntity
  8
0
  6
Continuous
 62
     7
100
AcDbLine
 10
69.5177118983065
 20
10.68121120727561
 30
0.0
 11
69.51761430377732
 21
10.68121120727561
 31
0.0
  0
LINE
  5
C97
330
BB1
100
AcDbEntity
  8
0
  6
Continuous
 62
     7
100
AcDbLine
 10
6.655436686887888
 20
10.68121120727561
 30
0.0
 11
6.655339092358694
 21
10.68121120727561
 31
0.0
  0
LINE
  5
C98
330
BB1
100
AcDbEntity
  8
0
  6
Continuous
 62
     7
100
AcDbLine
 10
7.155192700564885
 20
0.0000974115649797
 30
0.0
 11
7.155192700564878
 21
-0.000000182964218
 31
0.0
  0
LINE
  5
C99
330
BB1
100
AcDbEntity
  8
0
  6
Continuous
 62
     7
100
AcDbLine
 10
6.655436686887888
 20
0.4998534252419838
 30
0.0
 11
6.655339092358694
 21
0.4998534252419838
 31
0.0
  0
LINE
  5
C9A
330
BB1
100
AcDbEntity
  8
0
  6
Continuous
 62
     7
100
AcDbLine
 10
69.0178582901003
 20
-0.000000182964218
 30
0.0
 11
69.0178582901003
 21
0.0000974115649797
 31
0.0
  0
LINE
  5
C9B
330
BB1
100
AcDbEntity
  8
0
  6
Continuous
 62
     7
100
AcDbLine
 10
69.5177118983065
 20
0.4998534252419838
 30
0.0
 11
69.51761430377732
 21
0.4998534252419838
 31
0.0
  0
LINE
  5
C9C
330
BB1
100
AcDbEntity
  8
0
  6
HIDDEN
 62
     7
100
AcDbLine
 10
-0.0000004356316694
 20
20.43118622000968
 30
0.0
 11
73.93266754800473
 21
20.43118622000968
 31
0.0
  0
SOLID
  5
C9D
330
BB1
100
AcDbEntity
  8
0
  6
Continuous
 62
     7
100
AcDbTrace
 10
1.99999956436833
 20
20.43118622000968
 30
0.0
 11
0.4999995643683306
 21
14.43118622000968
 31
0.0
 12
3.49999956436833
 22
14.43118622000968
 32
0.0
 13
3.49999956436833
 23
14.43118622000968
 33
0.0
  0
LINE
  5
C9E
330
BB1
100
AcDbEntity
  8
0
  6
Continuous
 62
     7
100
AcDbLine
 10
1.99999956436833
 20
8.431186220009671
 30
0.0
 11
1.99999956436833
 21
20.43118622000968
 31
0.0
  0
SOLID
  5
C9F
330
BB1
100
AcDbEntity
  8
0
  6
Continuous
 62
     7
100
AcDbTrace
 10
71.93266754800473
 20
20.43118622000968
 30
0.0
 11
70.43266754800473
 21
14.43118622000968
 31
0.0
 12
73.43266754800473
 22
14.43118622000968
 32
0.0
 13
73.43266754800473
 23
14.43118622000968
 33
0.0
  0
LINE
  5
CA0
330
BB1
100
AcDbEntity
  8
0
  6
Continuous
 62
     7
100
AcDbLine
 10
71.93266754800473
 20
8.431186220009671
 30
0.0
 11
71.93266754800473
 21
20.43118622000968
 31
0.0
  0
MTEXT
  5
CA1
330
BB1
100
AcDbEntity
  8
0
 62
     7
100
AcDbMText
 10
4.752983274013555
 20
18.51739444008031
 30
0.0
 40
6.349999999999999
 41
0.0
 71
     1
 72
     5
  1
C
  7
SLDTEXTSTYLE0
 73
     1
 44
1.0
1001
ACAD
1000
MTEXTBEGIN
1070
    73
1070
     1
1070
    44
1040
1.0
1070
    74
1070
     0
1000
MTEXTEND
  0
MTEXT
  5
CA2
330
BB1
100
AcDbEntity
  8
0
 62
     7
100
AcDbMText
 10
74.68565125764995
 20
18.51739444008031
 30
0.0
 40
6.349999999999999
 41
0.0
 71
     1
 72
     5
  1
C
  7
SLDTEXTSTYLE0
 73
     1
 44
1.0
1001
ACAD
1000
MTEXTBEGIN
1070
    73
1070
     1
1070
    44
1040
1.0
1070
    74
1070
     0
1000
MTEXTEND
  0
ARC
  5
CA3
330
BB1
100
AcDbEntity
  8
0
  6
Continuous
 62
     7
100
AcDbCircle
 10
132.205218034569
 20
81.76000129043471
 30
0.0
 40
0.3000000000058094
100
AcDbArc
 50
180.0000000000004
 51
269.9999999988989
  0
LINE
  5
CA4
330
BB1
100
AcDbEntity
  8
0
  6
Continuous
 62
     7
100
AcDbLine
 10
132.2052180345632
 20
81.46000129043025
 30
0.0
 11
132.2052180345632
 21
81.25375402807089
 31
0.0
  0
ARC
  5
CA5
330
BB1
100
AcDbEntity
  8
0
  6
Continuous
 62
     7
100
AcDbCircle
 10
132.2052180345788
 20
81.75375402808681
 30
0.0
 40
0.5000000000159304
100
AcDbArc
 50
180.0000000000004
 51
269.999999998216
  0
LWPOLYLINE
  5
CA6
330
BB1
100
AcDbEntity
  8
0
  6
Continuous
 62
     7
100
AcDbPolyline
 90
        9
 70
   128
 43
0.0
 10
131.9052180345632
 20
81.76000129043027
 10
131.86619997016
 20
81.75988125103577
 10
131.8286813480902
 20
81.75952574589894
 10
131.7941039879593
 20
81.75894843688279
 10
131.7637966783259
 20
81.75817150964906
 10
131.7389241121027
 20
81.75722482107561
 10
131.7204421280609
 20
81.75614475187346
 10
131.7090609784825
 20
81.75497280849629
 10
131.7052180345632
 20
81.75375402807089
  0
LINE
  5
CA7
330
BB1
100
AcDbEntity
  8
0
  6
Continuous
 62
     7
100
AcDbLine
 10
132.2052180345632
 20
81.46000129043025
 30
0.0
 11
142.3865758165968
 21
81.46000129043025
 31
0.0
  0
LINE
  5
CA8
330
BB1
100
AcDbEntity
  8
0
  6
Continuous
 62
     7
100
AcDbLine
 10
142.3865758165968
 20
81.46000129043025
 30
0.0
 11
142.3865758165968
 21
81.25375402807089
 31
0.0
  0
LINE
  5
CA9
330
BB1
100
AcDbEntity
  8
0
  6
Continuous
 62
     7
100
AcDbLine
 10
142.3865758165968
 20
81.25375402807089
 30
0.0
 11
132.2052180345632
 21
81.25375402807089
 31
0.0
  0
ARC
  5
CAA
330
BB1
100
AcDbEntity
  8
0
  6
Continuous
 62
     7
100
AcDbCircle
 10
142.6364538234325
 20
71.44795964516593
 30
0.0
 40
10.01515935593688
100
AcDbArc
 50
88.57032319906378
 51
91.42967680090341
  0
ARC
  5
CAB
330
BB1
100
AcDbEntity
  8
0
  6
Continuous
 62
     7
100
AcDbCircle
 10
142.686429424803
 20
81.45375402807088
 30
0.0
 40
0.2000000000000028
100
AcDbArc
 50
270.0000000000008
 51
1.790000000099972
  0
LINE
  5
CAC
330
BB1
100
AcDbEntity
  8
0
  6
Continuous
 62
     7
100
AcDbLine
 10
142.686429424803
 20
81.25375402807089
 30
0.0
 11
142.3865758165968
 21
81.25375402807089
 31
0.0
  0
LINE
  5
CAD
330
BB1
100
AcDbEntity
  8
0
  6
Continuous
 62
     7
100
AcDbLine
 10
131.9052180345632
 20
87.06000129043026
 30
0.0
 11
131.9052180345632
 21
81.76000129043027
 31
0.0
  0
ARC
  5
CAE
330
BB1
100
AcDbEntity
  8
0
  6
Continuous
 62
     7
100
AcDbCircle
 10
131.5052180345592
 20
87.06000129042566
 30
0.0
 40
0.4000000000045958
100
AcDbArc
 50
0.0
 51
89.99999999943005
  0
LINE
  5
CAF
330
BB1
100
AcDbEntity
  8
0
  6
Continuous
 62
     7
100
AcDbLine
 10
102.7114195972861
 20
87.46000129043025
 30
0.0
 11
131.5052180345632
 21
87.46000129043025
 31
0.0
  0
LINE
  5
CB0
330
BB1
100
AcDbEntity
  8
0
  6
Continuous
 62
     7
100
AcDbLine
 10
103.1898613464168
 20
102.7693721839693
 30
0.0
 11
102.7114195972861
 21
87.46000129043025
 31
0.0
  0
LINE
  5
CB1
330
BB1
100
AcDbEntity
  8
0
  6
Continuous
 62
     7
100
AcDbLine
 10
141.7206246972414
 20
102.7693721839693
 30
0.0
 11
103.1898613464168
 21
102.7693721839693
 31
0.0
  0
LINE
  5
CB2
330
BB1
100
AcDbEntity
  8
0
  6
Continuous
 62
     7
100
AcDbLine
 10
142.3865758165968
 20
81.46000129043025
 30
0.0
 11
141.7206246972414
 21
102.7693721839693
 31
0.0
  0
LWPOLYLINE
  5
CB3
330
BB1
100
AcDbEntity
  8
0
  6
Continuous
 62
     7
100
AcDbPolyline
 90
        9
 70
   128
 43
0.0
 10
142.2203807109184
 20
102.7693721839693
 10
142.2106948559525
 20
102.7721145701229
 10
142.1821991938152
 20
102.7741522444114
 10
142.1359874411928
 20
102.7754069970933
 10
142.073833291383
 20
102.7758306684194
 10
141.9981223366361
 20
102.7754069970933
 10
141.9117605046736
 20
102.7741522444114
 10
141.8180625237587
 20
102.7721145701229
 10
141.7206246972414
 20
102.7693721839693
  0
LINE
  5
CB4
330
BB1
100
AcDbEntity
  8
0
  6
Continuous
 62
     7
100
AcDbLine
 10
142.2203807109184
 20
102.7693721839693
 30
0.0
 11
142.8863318302738
 21
81.46000129043025
 31
0.0
  0
LINE
  5
CB5
330
BB1
100
AcDbEntity
  8
0
  6
Continuous
 62
     7
100
AcDbLine
 10
131.7052180345632
 20
81.75375402807089
 30
0.0
 11
131.7052180345632
 21
87.0537540280709
 31
0.0
  0
LWPOLYLINE
  5
CB6
330
BB1
100
AcDbEntity
  8
0
  6
Continuous
 62
     7
100
AcDbPolyline
 90
        9
 70
   128
 43
0.0
 10
131.9052180345632
 20
87.06000129043026
 10
131.86619997016
 20
87.05988125103578
 10
131.8286813480902
 20
87.05952574589893
 10
131.7941039879593
 20
87.0589484368828
 10
131.7637966783258
 20
87.05817150964906
 10
131.7389241121027
 20
87.05722482107562
 10
131.7204421280609
 20
87.05614475187346
 10
131.7090609784825
 20
87.0549728084963
 10
131.7052180345632
 20
87.0537540280709
  0
ARC
  5
CB7
330
BB1
100
AcDbEntity
  8
0
  6
Continuous
 62
     7
100
AcDbCircle
 10
131.5052180345755
 20
87.05375402808064
 30
0.0
 40
0.1999999999902542
100
AcDbArc
 50
0.0000000000008142
 51
90.00000000353374
  0
LINE
  5
CB8
330
BB1
100
AcDbEntity
  8
0
  6
Continuous
 62
     7
100
AcDbLine
 10
131.5052180345632
 20
87.46000129043025
 30
0.0
 11
131.5052180345632
 21
87.25375402807088
 31
0.0
  0
ARC
  5
CB9
330
BB1
100
AcDbEntity
  8
0
  6
Continuous
 62
     7
100
AcDbCircle
 10
102.4615415904484
 20
77.4479596449098
 30
0.0
 40
10.01515935619289
100
AcDbArc
 50
88.57032319912161
 51
91.42967680088815
  0
LINE
  5
CBA
330
BB1
100
AcDbEntity
  8
0
  6
Continuous
 62
     7
100
AcDbLine
 10
102.7114195972861
 20
87.46000129043025
 30
0.0
 11
102.7114195972861
 21
87.25375402807088
 31
0.0
  0
LINE
  5
CBB
330
BB1
100
AcDbEntity
  8
0
  6
Continuous
 62
     7
100
AcDbLine
 10
102.7114195972861
 20
87.25375402807088
 30
0.0
 11
102.4115659890799
 21
87.25375402807088
 31
0.0
  0
ARC
  5
CBC
330
BB1
100
AcDbEntity
  8
0
  6
Continuous
 62
     7
100
AcDbCircle
 10
102.4115659890799
 20
87.4537540280709
 30
0.0
 40
0.2000000000000028
100
AcDbArc
 50
178.2099999999
 51
270.0000000000008
  0
LINE
  5
CBD
330
BB1
100
AcDbEntity
  8
0
  6
Continuous
 62
     7
100
AcDbLine
 10
131.5052180345632
 20
87.25375402807088
 30
0.0
 11
102.7114195972861
 21
87.25375402807088
 31
0.0
  0
LWPOLYLINE
  5
CBE
330
BB1
100
AcDbEntity
  8
0
  6
Continuous
 62
     7
100
AcDbPolyline
 90
        9
 70
   128
 43
0.0
 10
103.1898613464168
 20
102.7693721839693
 10
103.0924235198995
 20
102.7721145701229
 10
102.9987255389847
 20
102.7741522444114
 10
102.9123637070221
 20
102.7754069970933
 10
102.8366527522752
 20
102.7758306684194
 10
102.7744986024654
 20
102.7754069970933
 10
102.728286849843
 20
102.7741522444114
 10
102.6997911877057
 20
102.7721145701229
 10
102.6901053327398
 20
102.7693721839693
  0
LINE
  5
CBF
330
BB1
100
AcDbEntity
  8
0
  6
Continuous
 62
     7
100
AcDbLine
 10
102.2116635836091
 20
87.46000129043025
 30
0.0
 11
102.6901053327398
 21
102.7693721839693
 31
0.0
  0
ARC
  5
CC0
330
BB1
100
AcDbEntity
  8
0
  6
Continuous
 62
     7
100
AcDbCircle
 10
103.1898613464168
 20
102.7537540280709
 30
0.0
 40
0.5
100
AcDbArc
 50
90.0
 51
178.2099999999782
  0
LINE
  5
CC1
330
BB1
100
AcDbEntity
  8
0
  6
Continuous
 62
     7
100
AcDbLine
 10
103.1898613464168
 20
102.7693721839693
 30
0.0
 11
103.1898613464168
 21
103.2537540280709
 31
0.0
  0
LINE
  5
CC2
330
BB1
100
AcDbEntity
  8
0
  6
Continuous
 62
     7
100
AcDbLine
 10
103.1898613464168
 20
103.2537540280709
 30
0.0
 11
141.7206246972414
 21
103.2537540280709
 31
0.0
  0
LINE
  5
CC3
330
BB1
100
AcDbEntity
  8
0
  6
Continuous
 62
     7
100
AcDbLine
 10
141.7206246972414
 20
102.7693721839693
 30
0.0
 11
141.7206246972414
 21
103.2537540280709
 31
0.0
  0
ARC
  5
CC4
330
BB1
100
AcDbEntity
  8
0
  6
Continuous
 62
     7
100
AcDbCircle
 10
141.7206246972414
 20
102.7537540280709
 30
0.0
 40
0.5
100
AcDbArc
 50
1.790000000021769
 51
90.0
  0
LINE
  5
CC5
330
BB1
100
AcDbEntity
  8
0
  6
Continuous
 62
     7
100
AcDbLine
 10
131.9377186759607
 20
149.987465787473
 30
0.0
 11
130.9648146356561
 21
150.9603698277776
 31
0.0
  0
LINE
  5
CC6
330
BB1
100
AcDbEntity
  8
0
  6
Continuous
 62
     7
100
AcDbLine
 10
133.6862879728373
 20
148.2388964905963
 30
0.0
 11
133.4015992002841
 21
148.5235852631496
 31
0.0
  0
LINE
  5
CC7
330
BB1
100
AcDbEntity
  8
0
  6
Continuous
 62
     7
100
AcDbLine
 10
136.9165191066404
 20
145.0086653567932
 30
0.0
 11
135.9165191066404
 21
146.0086653567932
 31
0.0
  0
LINE
  5
CC8
330
BB1
100
AcDbEntity
  8
0
  6
Continuous
 62
     7
100
AcDbLine
 10
139.6862879728374
 20
142.2388964905963
 30
0.0
 11
138.6862879728373
 21
143.2388964905963
 31
0.0
  0
LINE
  5
CC9
330
BB1
100
AcDbEntity
  8
0
  6
Continuous
 62
     7
100
AcDbLine
 10
136.9165191066405
 20
149.4987934173278
 30
0.0
 11
135.3315349027019
 21
151.0837776212663
 31
0.0
  0
LINE
  5
CCA
330
BB1
100
AcDbEntity
  8
0
  6
Continuous
 62
     7
100
AcDbLine
 10
144.176416033372
 20
142.2388964905963
 30
0.0
 11
143.176416033372
 21
143.2388964905963
 31
0.0
  0
LINE
  5
CCB
330
BB1
100
AcDbEntity
  8
0
  6
Continuous
 62
     7
100
AcDbLine
 10
140.6711592100524
 20
150.2342813744505
 30
0.0
 11
139.6982551697478
 21
151.2071854147551
 31
0.0
  0
LINE
  5
CCC
330
BB1
100
AcDbEntity
  8
0
  6
Continuous
 62
     7
100
AcDbLine
 10
147.0536737338179
 20
143.8517668506849
 30
0.0
 11
146.0209100447848
 21
144.8845305397181
 31
0.0
  0
LINE
  5
CCD
330
BB1
100
AcDbEntity
  8
0
  6
Continuous
 62
     7
100
AcDbLine
 10
143.7575332906991
 20
151.6380353543383
 30
0.0
 11
142.8060272626078
 21
152.5895413824296
 31
0.0
  0
LINE
  5
CCE
330
BB1
100
AcDbEntity
  8
0
  6
Continuous
 62
     7
100
AcDbLine
 10
144.7883663076521
 20
150.6072023373853
 30
0.0
 11
144.4541370529155
 21
150.9414315921219
 31
0.0
  0
LINE
  5
CCF
330
BB1
100
AcDbEntity
  8
0
  6
Continuous
 62
     7
100
AcDbLine
 10
146.9088234211919
 20
148.4867452238455
 30
0.0
 11
145.6566721544411
 21
149.7388964905963
 31
0.0
  0
LINE
  5
CD0
330
BB1
100
AcDbEntity
  8
0
  6
Continuous
 62
     7
100
AcDbLine
 10
143.9811325884061
 20
155.9045641171659
 30
0.0
 11
143.0296265603148
 21
156.8560701452571
 31
0.0
  0
LINE
  5
CD1
330
BB1
100
AcDbEntity
  8
0
  6
Continuous
 62
     7
100
AcDbLine
 10
146.7639731085658
 20
153.1217235970062
 30
0.0
 11
145.7312094195326
 21
154.1544872860393
 31
0.0
  0
LINE
  5
CD2
330
BB1
100
AcDbEntity
  8
0
  6
Continuous
 62
     7
100
AcDbLine
 10
144.2047318861131
 20
160.1710928799934
 30
0.0
 11
143.2532258580219
 21
161.1225989080847
 31
0.0
  0
LINE
  5
CD3
330
BB1
100
AcDbEntity
  8
0
  6
Continuous
 62
     7
100
AcDbLine
 10
146.6191227959397
 20
157.7567019701668
 30
0.0
 11
145.5863591069066
 21
158.7894656592
 31
0.0
  0
LINE
  5
CD4
330
BB1
100
AcDbEntity
  8
0
  6
Continuous
 62
     7
100
AcDbLine
 10
146.4742724833136
 20
162.3916803433275
 30
0.0
 11
144.6270563360448
 21
164.2388964905963
 31
0.0
  0
LINE
  5
CD5
330
BB1
100
AcDbEntity
  8
0
  6
Continuous
 62
     7
100
AcDbLine
 10
106.7455196096298
 20
148.2388964905964
 30
0.0
 11
106.4264893019853
 21
148.5579267982409
 31
0.0
  0
LINE
  5
CD6
330
BB1
100
AcDbEntity
  8
0
  6
Continuous
 62
     7
100
AcDbLine
 10
107.5327292994672
 20
151.9418148612936
 30
0.0
 11
106.5625603823639
 21
152.9119837783968
 31
0.0
  0
LINE
  5
CD7
330
BB1
100
AcDbEntity
  8
0
  6
Continuous
 62
     7
100
AcDbLine
 10
109.6142515063788
 20
149.8602926543819
 30
0.0
 11
108.5789750697438
 21
150.895569091017
 31
0.0
  0
LINE
  5
CD8
330
BB1
100
AcDbEntity
  8
0
  6
Continuous
 62
     7
100
AcDbLine
 10
107.6688003798458
 20
156.2958718414496
 30
0.0
 11
106.6986314627425
 21
157.2660407585528
 31
0.0
  0
LINE
  5
CD9
330
BB1
100
AcDbEntity
  8
0
  6
Continuous
 62
     7
100
AcDbLine
 10
110.4801573522545
 20
153.4845148690409
 30
0.0
 11
109.4234028495209
 21
154.5412693717744
 31
0.0
  0
LINE
  5
CDA
330
BB1
100
AcDbEntity
  8
0
  6
Continuous
 62
     7
100
AcDbLine
 10
113.7578042411711
 20
150.2068679801242
 30
0.0
 11
112.7280097440037
 21
151.2366624772916
 31
0.0
  0
LINE
  5
CDB
330
BB1
100
AcDbEntity
  8
0
  6
Continuous
 62
     7
100
AcDbLine
 10
107.8048714602244
 20
160.6499288216055
 30
0.0
 11
106.8347025431211
 21
161.6200977387087
 31
0.0
  0
LINE
  5
CDC
330
BB1
100
AcDbEntity
  8
0
  6
Continuous
 62
     7
100
AcDbLine
 10
110.2318251739141
 20
158.2229751079159
 30
0.0
 11
109.1750706711805
 21
159.2797296106494
 31
0.0
  0
LINE
  5
CDD
330
BB1
100
AcDbEntity
  8
0
  6
Continuous
 62
     7
100
AcDbLine
 10
118.3798317752422
 20
150.0749685065877
 30
0.0
 11
117.3500372780748
 21
151.1047630037551
 31
0.0
  0
LINE
  5
CDE
330
BB1
100
AcDbEntity
  8
0
  6
Continuous
 62
     7
100
AcDbLine
 10
109.9834929955736
 20
162.9614353467908
 30
0.0
 11
108.706031851768
 21
164.2388964905964
 31
0.0
  0
LINE
  5
CDF
330
BB1
100
AcDbEntity
  8
0
  6
Continuous
 62
     7
100
AcDbLine
 10
124.3165440939064
 20
148.6283842484581
 30
0.0
 11
121.9720648121458
 21
150.9728635302186
 31
0.0
  0
ARC
  5
CE0
330
BB1
100
AcDbEntity
  8
0
  6
Continuous
 62
     7
100
AcDbCircle
 10
125.4529752397929
 20
218.8943442308028
 30
0.0
 40
68.21129611925418
100
AcDbArc
 50
268.5299448096536
 51
270.5663309429923
  0
LWPOLYLINE
  5
CE1
330
BB1
100
AcDbEntity
  8
0
  6
Continuous
 62
     7
100
AcDbPolyline
 90
        3
 70
   128
 43
0.0
 10
127.2311038359809
 20
150.6862696558915
 10
126.6877615444199
 20
150.6875251631376
 10
126.1271878773792
 20
150.6863802120176
  0
ARC
  5
CE2
330
BB1
100
AcDbEntity
  8
0
  6
Continuous
 62
     7
100
AcDbCircle
 10
127.9081276755098
 20
219.2697266714187
 30
0.0
 40
68.5867985656128
100
AcDbArc
 50
269.4344212090637
 51
271.4397238123087
  0
LWPOLYLINE
  5
CE3
330
BB1
100
AcDbEntity
  8
0
  6
Continuous
 62
     7
100
AcDbPolyline
 90
        5
 70
   128
 43
0.0
 10
129.995664924304
 20
150.7167916963306
 10
129.9867399550429
 20
150.7164927069401
 10
129.8996034689363
 20
150.7135730829139
 10
129.7872552665084
 20
150.7098073017774
 10
129.6313899592629
 20
150.7045802442334
  0
LINE
  5
CE4
330
BB1
100
AcDbEntity
  8
0
  6
Continuous
 62
     7
100
AcDbLine
 10
129.1951502890632
 20
150.045080161148
 30
0.0
 11
129.995664924304
 21
150.7167916963306
 31
0.0
  0
LINE
  5
CE5
330
BB1
100
AcDbEntity
  8
0
  6
Continuous
 62
     7
100
AcDbLine
 10
124.1379378987497
 20
150.045080161148
 30
0.0
 11
129.1951502890632
 21
150.045080161148
 31
0.0
  0
LINE
  5
CE6
330
BB1
100
AcDbEntity
  8
0
  6
Continuous
 62
     7
100
AcDbLine
 10
123.3360796705066
 20
150.7179191047232
 30
0.0
 11
124.1379378987497
 21
150.045080161148
 31
0.0
  0
LWPOLYLINE
  5
CE7
330
BB1
100
AcDbEntity
  8
0
  6
Continuous
 62
     7
100
AcDbPolyline
 90
        5
 70
   128
 43
0.0
 10
123.7030493396401
 20
150.7054985328989
 10
123.5052886956929
 20
150.7121941451049
 10
123.3798692098046
 20
150.7164378946895
 10
123.3360800887975
 20
150.7179190905754
 10
123.3360796705066
 20
150.7179191047232
  0
LWPOLYLINE
  5
CE8
330
BB1
100
AcDbEntity
  8
0
  6
Continuous
 62
     7
100
AcDbPolyline
 90
        9
 70
   128
 43
0.0
 10
129.631389959263
 20
150.7045802442334
 10
129.6902224957964
 20
150.755867825175
 10
129.7527051132299
 20
150.801375265844
 10
129.8183959369243
 20
150.8407807393904
 10
129.8868304039304
 20
150.8738055718387
 10
129.9575245483602
 20
150.9002162128588
 10
130.0299784239748
 20
150.9198258874249
 10
130.1036796397852
 20
150.9324959166815
 10
130.1781069836606
 20
150.9381366986747
  0
LINE
  5
CE9
330
BB1
100
AcDbEntity
  8
0
  6
Continuous
 62
     7
100
AcDbLine
 10
130.1781069836606
 20
150.9381366986747
 30
0.0
 11
130.610202833164
 21
150.9503481507719
 31
0.0
  0
ARC
  5
CEA
330
BB1
100
AcDbEntity
  8
0
  6
Continuous
 62
     7
100
AcDbCircle
 10
130.6384525339905
 20
149.9507472532116
 30
0.0
 40
1.000000000000019
100
AcDbArc
 50
91.61880399181386
 51
129.9999999999994
  0
ARC
  5
CEB
330
BB1
100
AcDbEntity
  8
0
  6
Continuous
 62
     7
100
AcDbCircle
 10
131.9719539906195
 20
147.9876347874385
 30
0.0
 40
2.000000000000002
100
AcDbArc
 50
91.61880399180409
 51
162.7808062021801
  0
LINE
  5
CEC
330
BB1
100
AcDbEntity
  8
0
  6
Continuous
 62
     7
100
AcDbLine
 10
146.0723386788133
 20
143.2388964905963
 30
0.0
 11
145.9160808702928
 21
148.2388964905963
 31
0.0
  0
LINE
  5
CED
330
BB1
100
AcDbEntity
  8
0
  6
Continuous
 62
     7
100
AcDbLine
 10
145.9160808702928
 20
148.2388964905963
 30
0.0
 11
145.8279173799386
 21
148.7388964905963
 31
0.0
  0
LINE
  5
CEE
330
BB1
100
AcDbEntity
  8
0
  6
Continuous
 62
     7
100
AcDbLine
 10
144.0843890074078
 20
148.7388964905963
 30
0.0
 11
145.8279173799386
 21
148.7388964905963
 31
0.0
  0
ARC
  5
CEF
330
BB1
100
AcDbEntity
  8
0
  6
Continuous
 62
     7
100
AcDbCircle
 10
144.0843890074078
 20
148.9388964905963
 30
0.0
 40
0.200000000000017
100
AcDbArc
 50
189.9999999999969
 51
270.0
  0
LINE
  5
CF0
330
BB1
100
AcDbEntity
  8
0
  6
Continuous
 62
     7
100
AcDbLine
 10
143.788046380945
 20
149.467784943804
 30
0.0
 11
143.8874274568053
 21
148.9041668550629
 31
0.0
  0
ARC
  5
CF1
330
BB1
100
AcDbEntity
  8
0
  6
Continuous
 62
     7
100
AcDbCircle
 10
142.8032386279328
 20
149.294136766137
 30
0.0
 40
1.000000000000015
100
AcDbArc
 50
10.00000000000017
 51
91.61880399180409
  0
LINE
  5
CF2
330
BB1
100
AcDbEntity
  8
0
  6
Continuous
 62
     7
100
AcDbLine
 10
142.7749889271062
 20
150.2937376636973
 30
0.0
 11
136.9165191066405
 21
150.1281715661343
 31
0.0
  0
LINE
  5
CF3
330
BB1
100
AcDbEntity
  8
0
  6
Continuous
 62
     7
100
AcDbLine
 10
136.9165191066404
 20
143.2388964905963
 30
0.0
 11
136.9165191066405
 21
150.1281715661343
 31
0.0
  0
LINE
  5
CF4
330
BB1
100
AcDbEntity
  8
0
  6
Continuous
 62
     7
100
AcDbLine
 10
136.9165191066404
 20
143.2388964905963
 30
0.0
 11
146.0723386788133
 21
143.2388964905963
 31
0.0
  0
LINE
  5
CF5
330
BB1
100
AcDbEntity
  8
0
  6
Continuous
 62
     7
100
AcDbLine
 10
145.447307444731
 20
163.2388964905963
 30
0.0
 11
144.3655086606213
 21
163.2388964905963
 31
0.0
  0
LINE
  5
CF6
330
BB1
100
AcDbEntity
  8
0
  6
Continuous
 62
     7
100
AcDbLine
 10
144.3655086606213
 20
163.2388964905963
 30
0.0
 11
143.7199384164088
 21
150.9206824192478
 31
0.0
  0
LINE
  5
CF7
330
BB1
100
AcDbEntity
  8
0
  6
Continuous
 62
     7
100
AcDbLine
 10
144.6438746849761
 20
150.9467937635188
 30
0.0
 11
143.7199384164088
 21
150.9206824192478
 31
0.0
  0
LINE
  5
CF8
330
BB1
100
AcDbEntity
  8
0
  6
Continuous
 62
     7
100
AcDbLine
 10
144.645670418092
 20
150.8832526858502
 30
0.0
 11
144.6438746849761
 21
150.9467937635188
 31
0.0
  0
LINE
  5
CF9
330
BB1
100
AcDbEntity
  8
0
  6
Continuous
 62
     7
100
AcDbLine
 10
144.7684625628497
 20
150.8918391490648
 30
0.0
 11
144.645670418092
 21
150.8832526858502
 31
0.0
  0
LINE
  5
CFA
330
BB1
100
AcDbEntity
  8
0
  6
Continuous
 62
     7
100
AcDbLine
 10
144.7684625628497
 20
150.8918391490648
 30
0.0
 11
144.84908416731
 21
149.7388964905963
 31
0.0
  0
LINE
  5
CFB
330
BB1
100
AcDbEntity
  8
0
  6
Continuous
 62
     7
100
AcDbLine
 10
144.84908416731
 20
149.7388964905963
 30
0.0
 11
145.8692035277366
 21
149.7388964905963
 31
0.0
  0
LINE
  5
CFC
330
BB1
100
AcDbEntity
  8
0
  6
Continuous
 62
     7
100
AcDbLine
 10
145.8692035277366
 20
149.7388964905963
 30
0.0
 11
145.447307444731
 21
163.2388964905963
 31
0.0
  0
LINE
  5
CFD
330
BB1
100
AcDbEntity
  8
0
  6
Continuous
 62
     7
100
AcDbLine
 10
135.9165191066405
 20
150.0999105862817
 30
0.0
 11
135.9165191066405
 21
149.7388964905963
 31
0.0
  0
LINE
  5
CFE
330
BB1
100
AcDbEntity
  8
0
  6
Continuous
 62
     7
100
AcDbLine
 10
135.9165191066405
 20
150.0999105862817
 30
0.0
 11
134.1165191066405
 21
150.0490408225472
 31
0.0
  0
LINE
  5
CFF
330
BB1
100
AcDbEntity
  8
0
  6
Continuous
 62
     7
100
AcDbLine
 10
134.1165191066405
 20
149.7388964905963
 30
0.0
 11
134.1165191066405
 21
150.0490408225472
 31
0.0
  0
LINE
  5
D00
330
BB1
100
AcDbEntity
  8
0
  6
Continuous
 62
     7
100
AcDbLine
 10
135.9165191066405
 20
149.7388964905963
 30
0.0
 11
134.1165191066405
 21
149.7388964905963
 31
0.0
  0
LINE
  5
D01
330
BB1
100
AcDbEntity
  8
0
  6
Continuous
 62
     7
100
AcDbLine
 10
136.4165191066404
 20
142.2388964905963
 30
0.0
 11
146.8977304968803
 21
142.2388964905963
 31
0.0
  0
ARC
  5
D02
330
BB1
100
AcDbEntity
  8
0
  6
Continuous
 62
     7
100
AcDbCircle
 10
136.4165191066404
 20
142.7388964905963
 30
0.0
 40
0.5
100
AcDbArc
 50
180.0
 51
270.0
  0
LINE
  5
D03
330
BB1
100
AcDbEntity
  8
0
  6
Continuous
 62
     7
100
AcDbLine
 10
135.9165191066405
 20
148.2388964905963
 30
0.0
 11
135.9165191066404
 21
142.7388964905963
 31
0.0
  0
ARC
  5
D04
330
BB1
100
AcDbEntity
  8
0
  6
Continuous
 62
     7
100
AcDbCircle
 10
135.4165191066405
 20
148.2388964905963
 30
0.0
 40
0.5
100
AcDbArc
 50
359.9999999999968
 51
90.0
  0
LINE
  5
D05
330
BB1
100
AcDbEntity
  8
0
  6
Continuous
 62
     7
100
AcDbLine
 10
134.3165191066405
 20
148.7388964905963
 30
0.0
 11
135.4165191066405
 21
148.7388964905963
 31
0.0
  0
ARC
  5
D06
330
BB1
100
AcDbEntity
  8
0
  6
Continuous
 62
     7
100
AcDbCircle
 10
134.3165191066405
 20
148.5388964905963
 30
0.0
 40
0.1999999999999957
100
AcDbArc
 50
90.0
 51
180.0
  0
LINE
  5
D07
330
BB1
100
AcDbEntity
  8
0
  6
Continuous
 62
     7
100
AcDbLine
 10
134.1165191066405
 20
148.4388964905964
 30
0.0
 11
134.1165191066405
 21
148.5388964905963
 31
0.0
  0
ARC
  5
D08
330
BB1
100
AcDbEntity
  8
0
  6
Continuous
 62
     7
100
AcDbCircle
 10
133.9165191066405
 20
148.4388964905964
 30
0.0
 40
0.200000000000017
100
AcDbArc
 50
270.0
 51
0.0
  0
LINE
  5
D09
330
BB1
100
AcDbEntity
  8
0
  6
Continuous
 62
     7
100
AcDbLine
 10
133.9165191066405
 20
148.2388964905963
 30
0.0
 11
133.6063120199834
 21
148.2388964905963
 31
0.0
  0
ARC
  5
D0A
330
BB1
100
AcDbEntity
  8
0
  6
Continuous
 62
     7
100
AcDbCircle
 10
133.6063120199834
 20
148.4388964905964
 30
0.0
 40
0.200000000000017
100
AcDbArc
 50
182.9999999999974
 51
270.0
  0
LINE
  5
D0B
330
BB1
100
AcDbEntity
  8
0
  6
Continuous
 62
     7
100
AcDbLine
 10
133.3483736375182
 20
149.5391895015679
 30
0.0
 11
133.4065861130325
 21
148.4284292993478
 31
0.0
  0
ARC
  5
D0C
330
BB1
100
AcDbEntity
  8
0
  6
Continuous
 62
     7
100
AcDbCircle
 10
132.8490588701409
 20
149.5130215234464
 30
0.0
 40
0.499999999999998
100
AcDbArc
 50
3.000000000000705
 51
91.6188039918823
  0
LINE
  5
D0D
330
BB1
100
AcDbEntity
  8
0
  6
Continuous
 62
     7
100
AcDbLine
 10
132.8349340197276
 20
150.0128219722265
 30
0.0
 11
131.9154545889664
 21
149.986836582559
 31
0.0
  0
LINE
  5
D0E
330
BB1
100
AcDbEntity
  8
0
  6
Continuous
 62
     7
100
AcDbLine
 10
129.1165440939064
 20
148.4388964905964
 30
0.0
 11
129.8705596454286
 21
148.4388964905964
 31
0.0
  0
ARC
  5
D0F
330
BB1
100
AcDbEntity
  8
0
  6
Continuous
 62
     7
100
AcDbCircle
 10
129.1165440939064
 20
148.5388964905964
 30
0.0
 40
0.1000000000000227
100
AcDbArc
 50
180.0
 51
270.0
  0
LINE
  5
D10
330
BB1
100
AcDbEntity
  8
0
  6
Continuous
 62
     7
100
AcDbLine
 10
129.0165440939064
 20
148.5388964905964
 30
0.0
 11
129.0165440939064
 21
149.6620579395885
 31
0.0
  0
ARC
  5
D11
330
BB1
100
AcDbEntity
  8
0
  6
Continuous
 62
     7
100
AcDbCircle
 10
129.5165440939064
 20
149.6620579395885
 30
0.0
 40
0.5
100
AcDbArc
 50
130.0000000000002
 51
180.0
  0
LINE
  5
D12
330
BB1
100
AcDbEntity
  8
0
  6
Continuous
 62
     7
100
AcDbLine
 10
141.8159818289805
 20
151.2670344452048
 30
0.0
 11
130.610202833164
 21
150.9503481507719
 31
0.0
  0
ARC
  5
D13
330
BB1
100
AcDbEntity
  8
0
  6
Continuous
 62
     7
100
AcDbCircle
 10
141.787732128154
 20
152.266635342765
 30
0.0
 40
1.000000000000002
100
AcDbArc
 50
271.6188039918367
 51
357.0000000000026
  0
LINE
  5
D14
330
BB1
100
AcDbEntity
  8
0
  6
Continuous
 62
     7
100
AcDbLine
 10
143.3917116098866
 20
163.7650644687178
 30
0.0
 11
142.7863616629086
 21
152.2142993865221
 31
0.0
  0
ARC
  5
D15
330
BB1
100
AcDbEntity
  8
0
  6
Continuous
 62
     7
100
AcDbCircle
 10
143.8910263772639
 20
163.7388964905963
 30
0.0
 40
0.5
100
AcDbArc
 50
90.0
 51
177.0000000000009
  0
LINE
  5
D16
330
BB1
100
AcDbEntity
  8
0
  6
Continuous
 62
     7
100
AcDbLine
 10
145.9319257693187
 20
164.2388964905963
 30
0.0
 11
143.8910263772639
 21
164.2388964905963
 31
0.0
  0
ARC
  5
D17
330
BB1
100
AcDbEntity
  8
0
  6
Continuous
 62
     7
100
AcDbCircle
 10
145.9319257693187
 20
163.7388964905963
 30
0.0
 40
0.5
100
AcDbArc
 50
1.789999999998956
 51
90.0
  0
LINE
  5
D18
330
BB1
100
AcDbEntity
  8
0
  6
Continuous
 62
     7
100
AcDbLine
 10
147.0976329023511
 20
142.4451437529557
 30
0.0
 11
146.4316817829958
 21
163.7545146464947
 31
0.0
  0
ARC
  5
D19
330
BB1
100
AcDbEntity
  8
0
  6
Continuous
 62
     7
100
AcDbCircle
 10
146.8977304968803
 20
142.4388964905963
 30
0.0
 40
0.200000000000017
100
AcDbArc
 50
270.0
 51
1.789999999994073
  0
ARC
  5
D1A
330
BB1
100
AcDbEntity
  8
0
  6
Continuous
 62
     7
100
AcDbCircle
 10
129.8705596454286
 20
148.6388964905964
 30
0.0
 40
0.1999999999999993
100
AcDbArc
 50
270.0
 51
342.7808062021792
  0
LINE
  5
D1B
330
BB1
100
AcDbEntity
  8
0
  6
Continuous
 62
     7
100
AcDbLine
 10
129.1165440939064
 20
148.4388964905964
 30
0.0
 11
124.2165440939064
 21
148.4388964905964
 31
0.0
  0
ARC
  5
D1C
330
BB1
100
AcDbEntity
  8
0
  6
Continuous
 62
     7
100
AcDbCircle
 10
124.2165440939064
 20
148.5388964905964
 30
0.0
 40
0.1000000000000014
100
AcDbArc
 50
270.0
 51
0.0
  0
LINE
  5
D1D
330
BB1
100
AcDbEntity
  8
0
  6
Continuous
 62
     7
100
AcDbLine
 10
124.3165440939064
 20
148.5388964905964
 30
0.0
 11
129.0165440939064
 21
148.5388964905964
 31
0.0
  0
LINE
  5
D1E
330
BB1
100
AcDbEntity
  8
0
  6
Continuous
 62
     7
100
AcDbLine
 10
107.4638846600762
 20
149.7388964905964
 30
0.0
 11
108.4840040205028
 21
149.7388964905964
 31
0.0
  0
LINE
  5
D1F
330
BB1
100
AcDbEntity
  8
0
  6
Continuous
 62
     7
100
AcDbLine
 10
108.4840040205028
 20
149.7388964905964
 30
0.0
 11
108.5649550026622
 21
150.8965494696112
 31
0.0
  0
LINE
  5
D20
330
BB1
100
AcDbEntity
  8
0
  6
Continuous
 62
     7
100
AcDbLine
 10
108.6225980148383
 20
150.8925186775389
 30
0.0
 11
108.5649550026622
 21
150.8965494696112
 31
0.0
  0
LINE
  5
D21
330
BB1
100
AcDbEntity
  8
0
  6
Continuous
 62
     7
100
AcDbLine
 10
109.6129027483895
 20
150.9253958991525
 30
0.0
 11
108.9675795271916
 21
163.2388964905964
 31
0.0
  0
LINE
  5
D22
330
BB1
100
AcDbEntity
  8
0
  6
Continuous
 62
     7
100
AcDbLine
 10
108.9675795271916
 20
163.2388964905964
 30
0.0
 11
107.8857807430819
 21
163.2388964905965
 31
0.0
  0
LINE
  5
D23
330
BB1
100
AcDbEntity
  8
0
  6
Continuous
 62
     7
100
AcDbLine
 10
107.8857807430819
 20
163.2388964905965
 30
0.0
 11
107.4638846600762
 21
149.7388964905964
 31
0.0
  0
LINE
  5
D24
330
BB1
100
AcDbEntity
  8
0
  6
Continuous
 62
     7
100
AcDbLine
 10
122.7218175938129
 20
150.9514677257896
 30
0.0
 11
111.5166109347624
 21
151.271232341708
 31
0.0
  0
ARC
  5
D25
330
BB1
100
AcDbEntity
  8
0
  6
Continuous
 62
     7
100
AcDbCircle
 10
122.6932920608201
 20
149.9518746616043
 30
0.0
 40
0.9999999999999976
100
AcDbArc
 50
49.99999999999972
 51
88.36538561740244
  0
ARC
  5
D26
330
BB1
100
AcDbEntity
  8
0
  6
Continuous
 62
     7
100
AcDbCircle
 10
123.8165440939064
 20
149.6620579395885
 30
0.0
 40
0.4999999999999966
100
AcDbArc
 50
0.0
 51
50.00000000000058
  0
LINE
  5
D27
330
BB1
100
AcDbEntity
  8
0
  6
Continuous
 62
     7
100
AcDbLine
 10
124.3165440939064
 20
149.6620579395885
 30
0.0
 11
124.3165440939064
 21
148.5388964905964
 31
0.0
  0
ARC
  5
D28
330
BB1
100
AcDbEntity
  8
0
  6
Continuous
 62
     7
100
AcDbCircle
 10
123.4626422165424
 20
148.6388964905964
 30
0.0
 40
0.2000000000000007
100
AcDbArc
 50
197.179629377843
 51
270.0
  0
ARC
  5
D29
330
BB1
100
AcDbEntity
  8
0
  6
Continuous
 62
     7
100
AcDbCircle
 10
121.360798657042
 20
147.9890860171604
 30
0.0
 40
1.999999999999998
100
AcDbArc
 50
17.17962937784302
 51
88.36538561740244
  0
LINE
  5
D2A
330
BB1
100
AcDbEntity
  8
0
  6
Continuous
 62
     7
100
AcDbLine
 10
121.4178497230276
 20
149.9882721455311
 30
0.0
 11
110.1274778719435
 21
150.3104671329498
 31
0.0
  0
ARC
  5
D2B
330
BB1
100
AcDbEntity
  8
0
  6
Continuous
 62
     7
100
AcDbCircle
 10
110.1132151054471
 20
149.8106706008571
 30
0.0
 40
0.4999999999999966
100
AcDbArc
 50
88.36538561735684
 51
170.0000000000014
  0
LINE
  5
D2C
330
BB1
100
AcDbEntity
  8
0
  6
Continuous
 62
     7
100
AcDbLine
 10
109.4456607310075
 20
148.904166855063
 30
0.0
 11
109.620811228941
 21
149.8974946896906
 31
0.0
  0
ARC
  5
D2D
330
BB1
100
AcDbEntity
  8
0
  6
Continuous
 62
     7
100
AcDbCircle
 10
109.248699180405
 20
148.9388964905964
 30
0.0
 40
0.200000000000017
100
AcDbArc
 50
270.0
 51
350.0000000000031
  0
LINE
  5
D2E
330
BB1
100
AcDbEntity
  8
0
  6
Continuous
 62
     7
100
AcDbLine
 10
107.6729907341097
 20
148.7388964905964
 30
0.0
 11
109.248699180405
 21
148.7388964905964
 31
0.0
  0
ARC
  5
D2F
330
BB1
100
AcDbEntity
  8
0
  6
Continuous
 62
     7
100
AcDbCircle
 10
107.6729907341097
 20
148.5388964905965
 30
0.0
 40
0.1999999999999958
100
AcDbArc
 50
90.0
 51
170.0000000000014
  0
ARC
  5
D30
330
BB1
100
AcDbEntity
  8
0
  6
Continuous
 62
     7
100
AcDbCircle
 10
107.4011624184942
 20
163.7388964905965
 30
0.0
 40
0.5000000000000076
100
AcDbArc
 50
90.0
 51
178.2100000000027
  0
LINE
  5
D31
330
BB1
100
AcDbEntity
  8
0
  6
Continuous
 62
     7
100
AcDbLine
 10
109.442061810549
 20
164.2388964905964
 30
0.0
 11
107.4011624184942
 21
164.2388964905965
 31
0.0
  0
ARC
  5
D32
330
BB1
100
AcDbEntity
  8
0
  6
Continuous
 62
     7
100
AcDbCircle
 10
109.442061810549
 20
163.7388964905964
 30
0.0
 40
0.5
100
AcDbArc
 50
3.000000000003968
 51
90.0
  0
LINE
  5
D33
330
BB1
100
AcDbEntity
  8
0
  6
Continuous
 62
     7
100
AcDbLine
 10
110.5465069330006
 20
152.2184894496503
 30
0.0
 11
109.9413765779263
 21
163.7650644687179
 31
0.0
  0
ARC
  5
D34
330
BB1
100
AcDbEntity
  8
0
  6
Continuous
 62
     7
100
AcDbCircle
 10
111.5451364677552
 20
152.2708254058933
 30
0.0
 40
1.000000000000011
100
AcDbArc
 50
183.0000000000007
 51
268.3653856173764
  0
LINE
  5
D35
330
BB1
100
AcDbEntity
  8
0
  6
Continuous
 62
     7
100
AcDbLine
 10
123.4626422165424
 20
148.4388964905964
 30
0.0
 11
124.2165440939064
 21
148.4388964905964
 31
0.0
  0
ARC
  5
D36
330
BB1
100
AcDbEntity
  8
0
  6
Continuous
 62
     7
100
AcDbCircle
 10
107.2491873912845
 20
148.4388964905964
 30
0.0
 40
0.200000000000017
100
AcDbArc
 50
270.0
 51
350.0000000000031
  0
LINE
  5
D37
330
BB1
100
AcDbEntity
  8
0
  6
Continuous
 62
     7
100
AcDbLine
 10
107.2491873912845
 20
148.2388964905964
 30
0.0
 11
106.6228670611572
 21
148.2388964905964
 31
0.0
  0
LINE
  5
D38
330
BB1
100
AcDbEntity
  8
0
  6
Continuous
 62
     7
100
AcDbLine
 10
107.4760291835073
 20
148.5736261261298
 30
0.0
 11
107.446148941887
 21
148.4041668550631
 31
0.0
  0
ARC
  5
D39
330
BB1
100
AcDbEntity
  8
0
  6
Continuous
 62
     7
100
AcDbCircle
 10
106.6228670611572
 20
148.4388964905964
 30
0.0
 40
0.200000000000017
100
AcDbArc
 50
178.2100000000059
 51
270.0
  0
LINE
  5
D3A
330
BB1
100
AcDbEntity
  8
0
  6
Continuous
 62
     7
100
AcDbLine
 10
106.9014064048172
 20
163.7545146464949
 30
0.0
 11
106.4229646556864
 21
148.4451437529558
 31
0.0
  0
LINE
  5
D3B
330
BB1
100
AcDbEntity
  8
0
  6
Continuous
 62
     7
100
AcDbLine
 10
109.6129027483895
 20
150.9253958991525
 30
0.0
 11
108.6243412904031
 21
150.953606621591
 31
0.0
  0
LINE
  5
D3C
330
BB1
100
AcDbEntity
  8
0
  6
Continuous
 62
     7
100
AcDbLine
 10
108.6243412904031
 20
150.953606621591
 30
0.0
 11
108.6225980148383
 21
150.8925186775389
 31
0.0
  0
LINE
  5
D3D
330
BB1
100
AcDbEntity
  8
0
  6
Continuous
 62
     7
100
AcDbLine
 10
129.0165440939064
 20
149.6620579395885
 30
0.0
 11
124.3165440939064
 21
149.6620579395885
 31
0.0
  0
LINE
  5
D3E
330
BB1
100
AcDbEntity
  8
0
  6
Continuous
 62
     7
100
AcDbLine
 10
122.7218175938129
 20
150.9514677257896
 30
0.0
 11
123.1570598538625
 21
150.9390471539652
 31
0.0
  0
LWPOLYLINE
  5
D3F
330
BB1
100
AcDbEntity
  8
0
  6
Continuous
 62
     7
100
AcDbPolyline
 90
        9
 70
   128
 43
0.0
 10
123.1570598538625
 20
150.9390471539652
 10
123.2313919850848
 20
150.9333908620232
 10
123.3049971951644
 20
150.9207101673807
 10
123.3773552974546
 20
150.9010946877158
 10
123.4479549189354
 20
150.8746830505874
 10
123.5162971142153
 20
150.8416619137189
 10
123.5818988917053
 20
150.802264645841
 10
123.6442966270424
 20
150.756769677416
 10
123.7030493396401
 20
150.7054985328989
  0
LWPOLYLINE
  5
D40
330
BB1
100
AcDbEntity
  8
0
  6
Continuous
 62
     7
100
AcDbPolyline
 90
        9
 70
   128
 43
0.0
 10
127.2311038359809
 20
150.6862696558915
 10
127.2430863314376
 20
150.7378887407162
 10
127.2557727241453
 20
150.7836484295448
 10
127.2690721031167
 20
150.8232208073751
 10
127.2828891646904
 20
150.8563222976205
 10
127.2971248954796
 20
150.8827156942265
 10
127.311677281904
 20
150.9022118614947
 10
127.3264420412215
 20
150.9146710894337
 10
127.3413133688209
 20
150.9200040949242
  0
ARC
  5
D41
330
BB1
100
AcDbEntity
  8
0
  6
Continuous
 62
     7
100
AcDbCircle
 10
128.1371465135174
 20
248.3273617589337
 30
0.0
 40
97.41060864956384
100
AcDbArc
 50
269.5318950544677
 51
271.200556902826
  0
ARC
  5
D42
330
BB1
100
AcDbEntity
  8
0
  6
Continuous
 62
     7
100
AcDbCircle
 10
125.2244018633923
 20
247.0049795250578
 30
0.0
 40
96.0881744301124
100
AcDbArc
 50
268.7671832363609
 51
270.475541889995
  0
LWPOLYLINE
  5
D43
330
BB1
100
AcDbEntity
  8
0
  6
Continuous
 62
     7
100
AcDbPolyline
 90
        9
 70
   128
 43
0.0
 10
126.021902619136
 20
150.9201146510503
 10
126.0361093890271
 20
150.9147795785085
 10
126.0502143613103
 20
150.9023188889751
 10
126.0641164678016
 20
150.8828218686423
 10
126.0777160939369
 20
150.8564282220343
 10
126.0909157925545
 20
150.8233270709648
 10
126.1036209821447
 20
150.7837555993975
 10
126.1157406245673
 20
150.7379973539213
 10
126.1271878773792
 20
150.6863802120176
  0
LINE
  5
D44
330
BB1
100
AcDbEntity
  8
0
  6
Continuous
 62
     7
100
AcDbLine
 10
140.0070347527423
 20
151.2779497917732
 30
0.0
 11
127.3413133688209
 21
150.9200040949242
 31
0.0
  0
LINE
  5
D45
330
BB1
100
AcDbEntity
  8
0
  6
Continuous
 62
     7
100
AcDbLine
 10
141.8004366556717
 20
151.2881980716763
 30
0.0
 11
140.0070347527423
 21
151.2779497917732
 31
0.0
  0
LINE
  5
D46
330
BB1
100
AcDbEntity
  8
0
  6
Continuous
 62
     7
100
AcDbLine
 10
141.8159818289805
 20
151.2670344452048
 30
0.0
 11
141.8004366556717
 21
151.2881980716763
 31
0.0
  0
LINE
  5
D47
330
BB1
100
AcDbEntity
  8
0
  6
Continuous
 62
     7
100
AcDbLine
 10
111.5314425009525
 20
151.2901824801148
 30
0.0
 11
111.5166109347624
 21
151.271232341708
 31
0.0
  0
LINE
  5
D48
330
BB1
100
AcDbEntity
  8
0
  6
Continuous
 62
     7
100
AcDbLine
 10
113.4826268454304
 20
151.2779497917733
 30
0.0
 11
111.5314425009525
 21
151.2901824801148
 31
0.0
  0
LINE
  5
D49
330
BB1
100
AcDbEntity
  8
0
  6
Continuous
 62
     7
100
AcDbLine
 10
126.021902619136
 20
150.9201146510503
 30
0.0
 11
113.4826268454304
 21
151.2779497917733
 31
0.0
  0
ARC
  5
D4A
330
BB1
100
AcDbEntity
  8
0
  6
Continuous
 62
     7
100
AcDbCircle
 10
126.6664468410839
 20
-30.01779381712349
 30
0.0
 40
180.9390564750774
100
AcDbArc
 50
89.78629769503767
 51
90.20410044381128
  0
LINE
  5
D4B
330
BB1
100
AcDbEntity
  8
0
  6
Continuous
 62
     7
100
AcDbLine
 10
140.0070347527423
 20
151.2779497917732
 30
0.0
 11
113.4826268454304
 21
151.2779497917733
 31
0.0
  0
LINE
  5
D4C
330
BB1
100
AcDbEntity
  8
0
  6
Continuous
 62
     7
100
AcDbLine
 10
143.2930003155521
 20
149.4816260889903
 30
0.0
 11
136.9165191066405
 21
149.3014204820151
 31
0.0
  0
LWPOLYLINE
  5
D4D
330
BB1
100
AcDbEntity
  8
0
  6
Continuous
 62
     7
100
AcDbPolyline
 90
        9
 70
   128
 43
0.0
 10
143.2930003155521
 20
149.4816260889903
 10
143.2655870948323
 20
149.6493019998748
 10
143.2241242373973
 20
149.8061853097989
 10
143.1698716978611
 20
149.9475087194875
 10
143.1044780779297
 20
150.068977756897
 10
143.0299305294363
 20
150.1669012756951
 10
142.9484943696671
 20
150.2383036201516
 10
142.8626442439214
 20
150.2810150480221
 10
142.7749889271062
 20
150.2937376636973
  0
LWPOLYLINE
  5
D4E
330
BB1
100
AcDbEntity
  8
0
  6
Continuous
 62
     7
100
AcDbPolyline
 90
        9
 70
   128
 43
0.0
 10
143.2930003155521
 20
149.4816260889903
 10
143.3865047330073
 20
149.4986703190035
 10
143.4765735444568
 20
149.5118981451533
 10
143.5598973773818
 20
149.5208235412154
 10
143.6334146880753
 20
149.5251185639211
 10
143.6944242510659
 20
149.5246254024822
 10
143.7406844094703
 20
149.5193621769882
 10
143.7704954395495
 20
149.5095222726247
 10
143.7827620031714
 20
149.4954672341767
  0
LWPOLYLINE
  5
D4F
330
BB1
100
AcDbEntity
  8
0
  6
Continuous
 62
     7
100
AcDbPolyline
 90
        9
 70
   128
 43
0.0
 10
117.8376492713463
 20
150.0904408477405
 10
117.8369960170559
 20
150.08285949479
 10
117.8359292022298
 20
150.0603208994258
 10
117.8344812448197
 20
150.0235099556713
 10
117.8326961447894
 20
149.9735452600927
 10
117.8306281470604
 20
149.9119451203237
 10
117.8283400931394
 20
149.8405814173268
 10
117.8259015115143
 20
149.7616227234063
 10
117.8233865048499
 20
149.6774684044812
  0
LINE
  5
D50
330
BB1
100
AcDbEntity
  8
0
  6
Continuous
 62
     7
100
AcDbLine
 10
117.8233865048499
 20
149.6774684044812
 30
0.0
 11
109.8193746872697
 21
149.90588005654
 31
0.0
  0
LWPOLYLINE
  5
D51
330
BB1
100
AcDbEntity
  8
0
  6
Continuous
 62
     7
100
AcDbPolyline
 90
        9
 70
   128
 43
0.0
 10
109.8193746872697
 20
149.90588005654
 10
109.8353479885718
 20
149.989650314149
 10
109.8597650071789
 20
150.0679818062094
 10
109.8918837682765
 20
150.1384942259669
 10
109.9307282595102
 20
150.1990448695795
 10
109.9751180896682
 20
150.2477937477635
 10
110.0237043579476
 20
150.283259498669
 10
110.0750106438244
 20
150.304364402924
 10
110.1274778719435
 20
150.3104671329498
  0
LWPOLYLINE
  5
D52
330
BB1
100
AcDbEntity
  8
0
  6
Continuous
 62
     7
100
AcDbPolyline
 90
        9
 70
   128
 43
0.0
 10
109.8193746872697
 20
149.90588005654
 10
109.7819760951149
 20
149.9127075342895
 10
109.745951545352
 20
149.9180081835665
 10
109.7126245973901
 20
149.9215872559485
 10
109.683219699441
 20
149.9233132545828
 10
109.6588172016994
 20
149.9231227654434
 10
109.6403136637533
 20
149.9210227871934
 10
109.6283889145499
 20
149.9170904740512
 10
109.6234810751514
 20
149.9114703011063
  0
LINE
  5
D53
330
BB1
100
AcDbEntity
  8
0
  6
Continuous
 62
     7
100
AcDbLine
 10
122.2835771091646
 20
149.763481668727
 30
0.0
 11
122.2835771091646
 21
149.6139515567053
 31
0.0
  0
LWPOLYLINE
  5
D54
330
BB1
100
AcDbEntity
  8
0
  6
Continuous
 62
     7
100
AcDbPolyline
 90
        3
 70
   128
 43
0.0
 10
122.2835771091646
 20
149.6139515567053
 10
120.0513145045579
 20
149.6298320152911
 10
117.8233865048499
 20
149.6774684044812
  0
LINE
  5
D55
330
BB1
100
AcDbEntity
  8
0
  6
Continuous
 62
     7
100
AcDbLine
 10
131.1200817177012
 20
149.7971412479501
 30
0.0
 11
131.1200817177012
 21
149.6139515567053
 31
0.0
  0
LINE
  5
D56
330
BB1
100
AcDbEntity
  8
0
  6
Continuous
 62
     7
100
AcDbLine
 10
131.1200817177012
 20
149.6139515567053
 30
0.0
 11
130.8078690426875
 21
149.6139515567053
 31
0.0
  0
LINE
  5
D57
330
BB1
100
AcDbEntity
  8
0
  6
Continuous
 62
     7
100
AcDbLine
 10
122.5269084196285
 20
149.6139515567053
 30
0.0
 11
122.2835771091646
 21
149.6139515567053
 31
0.0
  0
LWPOLYLINE
  5
D58
330
BB1
100
AcDbEntity
  8
0
  6
Continuous
 62
     7
100
AcDbPolyline
 90
        8
 70
   128
 43
0.0
 10
132.8429053575246
 20
150.0129836562981
 10
132.8429881609027
 20
150.00802178427
 10
132.8435414536628
 20
149.9715596879029
 10
132.8442272955612
 20
149.9216363386911
 10
132.845024462353
 20
149.859796677807
 10
132.8459082847038
 20
149.7879544117563
 10
132.8468514116133
 20
149.7083327903104
 10
132.8478246568266
 20
149.623395805231
  0
LINE
  5
D59
330
BB1
100
AcDbEntity
  8
0
  6
Continuous
 62
     7
100
AcDbLine
 10
132.8478246568266
 20
149.623395805231
 30
0.0
 11
131.1200817177012
 21
149.6139515567053
 31
0.0
  0
LWPOLYLINE
  5
D5A
330
BB1
100
AcDbEntity
  8
0
  6
Continuous
 62
     7
100
AcDbPolyline
 90
        9
 70
   128
 43
0.0
 10
133.3460669701581
 20
149.5676378995645
 10
133.3367753168697
 20
149.579039019986
 10
133.3078372200004
 20
149.5937251208134
 10
133.2614244181505
 20
149.6062401094565
 10
133.1993000153839
 20
149.6161085733899
 10
133.1238239594443
 20
149.6229556348177
 10
133.0378633933538
 20
149.6265211913251
 10
132.9446837399566
 20
149.6266697965069
 10
132.8478246568266
 20
149.623395805231
  0
ARC
  5
D5B
330
BB1
100
AcDbEntity
  8
0
  6
Continuous
 62
     7
100
AcDbCircle
 10
133.0724076993946
 20
150.1856011432757
 30
0.0
 40
1.788666570726642
100
AcDbArc
 50
264.8458498018722
 51
280.7679040599918
  0
LINE
  5
D5C
330
BB1
100
AcDbEntity
  8
0
  6
Continuous
 62
     7
100
AcDbLine
 10
132.9117217385426
 20
148.4041668550629
 30
0.0
 11
132.8478246568266
 21
149.623395805231
 31
0.0
  0
LWPOLYLINE
  5
D5D
330
BB1
100
AcDbEntity
  8
0
  6
Continuous
 62
     7
100
AcDbPolyline
 90
        3
 70
   128
 43
0.0
 10
143.2956425044389
 20
149.4677849438039
 10
143.2943701715781
 20
149.4747148246812
 10
143.2930003155521
 20
149.4816260889903
  0
LWPOLYLINE
  5
D5E
330
BB1
100
AcDbEntity
  8
0
  6
Continuous
 62
     7
100
AcDbPolyline
 90
        9
 70
   128
 43
0.0
 10
143.788046380945
 20
149.4677849438039
 10
143.7761006478189
 20
149.4823035495892
 10
143.7463911833644
 20
149.4930752641538
 10
143.7000164202999
 20
149.4997018304464
 10
143.6386909488406
 20
149.5019382478466
 10
143.5646821240383
 20
149.4997018304464
 10
143.4807262360317
 20
149.4930752641538
 10
143.3899273426008
 20
149.4823035495892
 10
143.2956425044389
 20
149.4677849438039
  0
ARC
  5
D5F
330
BB1
100
AcDbEntity
  8
0
  6
Continuous
 62
     7
100
AcDbCircle
 10
143.6412255185524
 20
150.7101929836652
 30
0.0
 40
1.822730306873184
100
AcDbArc
 50
262.237149734156
 51
277.762850265844
  0
LINE
  5
D60
330
BB1
100
AcDbEntity
  8
0
  6
Continuous
 62
     7
100
AcDbLine
 10
143.3950235802992
 20
148.9041668550629
 30
0.0
 11
143.2956425044389
 21
149.4677849438039
 31
0.0
  0
LWPOLYLINE
  5
D61
330
BB1
100
AcDbEntity
  8
0
  6
Continuous
 62
     7
100
AcDbPolyline
 90
        4
 70
   128
 43
0.0
 10
143.8484580168455
 20
148.7388964905963
 10
143.676183742408
 20
148.7671860918337
 10
143.396251040761
 20
148.9034182902579
 10
143.3950235802992
 20
148.9041668550629
  0
LINE
  5
D62
330
BB1
100
AcDbEntity
  8
0
  6
Continuous
 62
     7
100
AcDbLine
 10
144.0843890074078
 20
148.7388964905963
 30
0.0
 11
143.8484580168455
 21
148.7388964905963
 31
0.0
  0
LINE
  5
D63
330
BB1
100
AcDbEntity
  8
0
  6
Continuous
 62
     7
100
AcDbLine
 10
145.9160808702928
 20
148.2388964905963
 30
0.0
 11
145.4236769937867
 21
148.2388964905963
 31
0.0
  0
LINE
  5
D64
330
BB1
100
AcDbEntity
  8
0
  6
Continuous
 62
     7
100
AcDbLine
 10
145.4236769937867
 20
148.2388964905963
 30
0.0
 11
145.3355135034325
 21
148.7388964905963
 31
0.0
  0
ARC
  5
D65
330
BB1
100
AcDbEntity
  8
0
  6
Continuous
 62
     7
100
AcDbCircle
 10
107.6923508801399
 20
150.2101929838462
 30
0.0
 40
1.822730307052294
100
AcDbArc
 50
262.2371497349251
 51
277.7628502650781
  0
ARC
  5
D66
330
BB1
100
AcDbEntity
  8
0
  6
Continuous
 62
     7
100
AcDbCircle
 10
107.7222311217602
 20
146.7313229587095
 30
0.0
 40
1.858681348452803
100
AcDbArc
 50
82.38819915945011
 51
97.61180084054988
  0
LINE
  5
D67
330
BB1
100
AcDbEntity
  8
0
  6
Continuous
 62
     7
100
AcDbLine
 10
107.9684330600134
 20
148.5736261261298
 30
0.0
 11
107.9385528183931
 21
148.4041668550631
 31
0.0
  0
LINE
  5
D68
330
BB1
100
AcDbEntity
  8
0
  6
Continuous
 62
     7
100
AcDbLine
 10
107.9684330600134
 20
148.7388964905964
 30
0.0
 11
107.9684330600134
 21
148.5736261261298
 31
0.0
  0
LINE
  5
D69
330
BB1
100
AcDbEntity
  8
0
  6
Continuous
 62
     7
100
AcDbLine
 10
132.9117217385426
 20
148.4041668550629
 30
0.0
 11
132.9117217385426
 21
148.2388964905963
 31
0.0
  0
LINE
  5
D6A
330
BB1
100
AcDbEntity
  8
0
  6
Continuous
 62
     7
100
AcDbLine
 10
133.6063120199834
 20
148.2388964905963
 30
0.0
 11
132.9117217385426
 21
148.2388964905963
 31
0.0
  0
LINE
  5
D6B
330
BB1
100
AcDbEntity
  8
0
  6
Continuous
 62
     7
100
AcDbLine
 10
107.9385528183931
 20
148.4041668550631
 30
0.0
 11
107.9385528183931
 21
148.2388964905964
 31
0.0
  0
LINE
  5
D6C
330
BB1
100
AcDbEntity
  8
0
  6
Continuous
 62
     7
100
AcDbLine
 10
107.9385528183931
 20
148.2388964905964
 30
0.0
 11
107.2491873912845
 21
148.2388964905964
 31
0.0
  0
LWPOLYLINE
  5
D6D
330
BB1
100
AcDbEntity
  8
0
  6
Continuous
 62
     7
100
AcDbPolyline
 90
        9
 70
   128
 43
0.0
 10
109.8177727795434
 20
149.8974946896906
 10
109.7800588442787
 20
149.9033021320047
 10
109.7437392869063
 20
149.9076108178305
 10
109.7101569317037
 20
149.9102614443476
 10
109.6805534017828
 20
149.9111560113077
 10
109.656023213199
 20
149.9102614443476
 10
109.6374733079732
 20
149.9076108178305
 10
109.6255895221915
 20
149.9033021320047
 10
109.620811228941
 20
149.8974946896906
  0
LWPOLYLINE
  5
D6E
330
BB1
100
AcDbEntity
  8
0
  6
Continuous
 62
     7
100
AcDbPolyline
 90
        3
 70
   128
 43
0.0
 10
109.8193746872697
 20
149.90588005654
 10
109.8185439044243
 20
149.9016930715276
 10
109.8177727795434
 20
149.8974946896906
  0
LWPOLYLINE
  5
D6F
330
BB1
100
AcDbEntity
  8
0
  6
Continuous
 62
     7
100
AcDbPolyline
 90
        9
 70
   128
 43
0.0
 10
109.4456607310075
 20
148.904166855063
 10
109.4504390242579
 20
148.9099742973771
 10
109.4623228100397
 20
148.9142829832029
 10
109.4808727152655
 20
148.91693360972
 10
109.5054029038492
 20
148.9178281766801
 10
109.5350064337701
 20
148.91693360972
 10
109.5685887889727
 20
148.9142829832029
 10
109.6049083463451
 20
148.9099742973771
 10
109.6426222816099
 20
148.904166855063
  0
LINE
  5
D70
330
BB1
100
AcDbEntity
  8
0
  6
Continuous
 62
     7
100
AcDbLine
 10
109.8177727795434
 20
149.8974946896906
 30
0.0
 11
109.6426222816099
 21
148.904166855063
 31
0.0
  0
ARC
  5
D71
330
BB1
100
AcDbEntity
  8
0
  6
Continuous
 62
     7
100
AcDbCircle
 10
109.2486991804037
 20
148.9736261261302
 30
0.0
 40
0.4000000000014142
100
AcDbArc
 50
270.0
 51
349.9999999999717
  0
LINE
  5
D72
330
BB1
100
AcDbEntity
  8
0
  6
Continuous
 62
     7
100
AcDbLine
 10
109.248699180405
 20
148.7388964905964
 30
0.0
 11
109.248699180405
 21
148.5736261261298
 31
0.0
  0
LINE
  5
D73
330
BB1
100
AcDbEntity
  8
0
  6
Continuous
 62
     7
100
AcDbLine
 10
107.9385528183931
 20
148.4041668550631
 30
0.0
 11
132.9117217385426
 21
148.4041668550629
 31
0.0
  0
LINE
  5
D74
330
BB1
100
AcDbEntity
  8
0
  6
Continuous
 62
     7
100
AcDbLine
 10
109.248699180405
 20
148.5736261261298
 30
0.0
 11
107.9684330600134
 21
148.5736261261298
 31
0.0
  0
LINE
  5
D75
330
BB1
100
AcDbEntity
  8
0
  6
Continuous
 62
     7
100
AcDbLine
 10
145.4236769937867
 20
148.2388964905963
 30
0.0
 11
136.9165191066405
 21
148.2388964905963
 31
0.0
  0
LINE
  5
D76
330
BB1
100
AcDbEntity
  8
0
  6
Continuous
 62
     7
100
AcDbLine
 10
132.9117217385426
 20
148.2388964905963
 30
0.0
 11
107.9385528183931
 21
148.2388964905964
 31
0.0
  0
LWPOLYLINE
  5
D77
330
BB1
100
AcDbEntity
  8
0
  6
Continuous
 62
     7
100
AcDbPolyline
 90
        9
 70
   128
 43
0.0
 10
142.7874841663641
 20
152.2357180283879
 10
142.7600226452426
 20
152.0496692799308
 10
142.6982073241729
 20
151.8720530790259
 10
142.6042248393952
 20
151.7091523667787
 10
142.4813996985489
 20
151.5667295431051
 10
142.334076680558
 20
151.4498226293605
 10
142.1674671447515
 20
151.3625670549157
 10
141.9874646858341
 20
151.3080493717438
 10
141.8004366556717
 20
151.2881980716763
  0
LWPOLYLINE
  5
D78
330
BB1
100
AcDbEntity
  8
0
  6
Continuous
 62
     7
100
AcDbPolyline
 90
        9
 70
   128
 43
0.0
 10
111.5314425009525
 20
151.2901824801148
 10
111.3445719715405
 20
151.3102132433691
 10
111.1647502132874
 20
151.3648531767273
 10
110.998328880944
 20
151.4521722913178
 10
110.8511863001167
 20
151.5690863059369
 10
110.7285198333587
 20
151.7114655898682
 10
110.6346622992
 20
151.8742810294829
 10
110.5729289285591
 20
152.0517816663289
 10
110.5455002643284
 20
152.2376978321847
  0
LINE
  5
D79
330
BB1
100
AcDbEntity
  8
0
  6
Continuous
 62
     7
100
AcDbLine
 10
144.6767919670415
 20
150.9494344087393
 30
0.0
 11
144.6733183877122
 21
150.9476258714085
 31
0.0
  0
LINE
  5
D7A
330
BB1
100
AcDbEntity
  8
0
  6
Continuous
 62
     7
100
AcDbLine
 10
144.673318387712
 20
150.9476258714085
 30
0.0
 11
144.6441750650459
 21
150.9468022525538
 31
0.0
  0
LINE
  5
D7B
330
BB1
100
AcDbEntity
  8
0
  6
Continuous
 62
     7
100
AcDbLine
 10
143.7204170004667
 20
150.9298143470737
 30
0.0
 11
144.6767919670415
 21
150.9494344087393
 31
0.0
  0
LINE
  5
D7C
330
BB1
100
AcDbEntity
  8
0
  6
Continuous
 62
     7
100
AcDbLine
 10
144.6750052145165
 20
150.8879383866433
 30
0.0
 11
144.6456007815429
 21
150.8857167387388
 31
0.0
  0
LWPOLYLINE
  5
D7D
330
BB1
100
AcDbEntity
  8
0
  6
Continuous
 62
     7
100
AcDbPolyline
 90
        3
 70
   128
 43
0.0
 10
144.6782636116507
 20
150.894594724536
 10
144.6767087621437
 20
150.8909245742076
 10
144.6750052145165
 20
150.8879383866434
  0
LINE
  5
D7E
330
BB1
100
AcDbEntity
  8
0
  6
Continuous
 62
     7
100
AcDbLine
 10
144.7190794836522
 20
150.897434386934
 30
0.0
 11
144.6782635918083
 21
150.8945947232001
 31
0.0
  0
LINE
  5
D7F
330
BB1
100
AcDbEntity
  8
0
  6
Continuous
 62
     7
100
AcDbLine
 10
144.7191654932244
 20
150.8978048438845
 30
0.0
 11
144.7190794569674
 21
150.8974343892737
 31
0.0
  0
LINE
  5
D80
330
BB1
100
AcDbEntity
  8
0
  6
Continuous
 62
     7
100
AcDbLine
 10
144.7678075528795
 20
150.9012062280426
 30
0.0
 11
144.7191654932244
 21
150.8978048438845
 31
0.0
  0
LINE
  5
D81
330
BB1
100
AcDbEntity
  8
0
  6
Continuous
 62
     7
100
AcDbLine
 10
144.7678075528795
 20
150.9012062280426
 30
0.0
 11
144.7684625628497
 21
150.8918391490646
 31
0.0
  0
LINE
  5
D82
330
BB1
100
AcDbEntity
  8
0
  6
Continuous
 62
     7
100
AcDbLine
 10
108.6569066427547
 20
150.9537535137125
 30
0.0
 11
109.6125047268074
 21
150.9329906033663
 31
0.0
  0
LINE
  5
D83
330
BB1
100
AcDbEntity
  8
0
  6
Continuous
 62
     7
100
AcDbLine
 10
108.5655011546217
 20
150.9043598065086
 30
0.0
 11
108.6138418822305
 21
150.9009794935398
 31
0.0
  0
LINE
  5
D84
330
BB1
100
AcDbEntity
  8
0
  6
Continuous
 62
     7
100
AcDbLine
 10
108.6139240015162
 20
150.9006516344463
 30
0.0
 11
108.6138418822305
 21
150.9009794935398
 31
0.0
  0
LINE
  5
D85
330
BB1
100
AcDbEntity
  8
0
  6
Continuous
 62
     7
100
AcDbLine
 10
108.6228124483394
 20
150.9000328663342
 30
0.0
 11
108.6139239786808
 21
150.9006516360361
 31
0.0
  0
LINE
  5
D86
330
BB1
100
AcDbEntity
  8
0
  6
Continuous
 62
     7
100
AcDbLine
 10
108.5649550026622
 20
150.8965494696111
 30
0.0
 11
108.5655011546217
 21
150.9043598065085
 31
0.0
  0
LWPOLYLINE
  5
D87
330
BB1
100
AcDbEntity
  8
0
  6
Continuous
 62
     7
100
AcDbPolyline
 90
        9
 70
   128
 43
0.0
 10
141.8004366556717
 20
151.2881980716763
 10
141.800135803015
 20
151.3087886425862
 10
141.7994235273106
 20
151.365092909977
 10
141.7983258051731
 20
151.4550574635728
 10
141.7968826704048
 20
151.5754013062595
 10
141.7951467539678
 20
151.7217355116793
 10
141.7931813645388
 20
151.8887232878793
 10
141.7910581796482
 20
152.0702746095117
 10
141.7888546316095
 20
152.2597683203708
  0
LWPOLYLINE
  5
D88
330
BB1
100
AcDbEntity
  8
0
  6
Continuous
 62
     7
100
AcDbPolyline
 90
        9
 70
   128
 43
0.0
 10
142.7874841663641
 20
152.2357180283879
 10
142.7680436744699
 20
152.2312237296418
 10
142.7110441622112
 20
152.228909284439
 10
142.6186719753781
 20
152.2288634685832
 10
142.4944702590576
 20
152.2310880394457
 10
142.3432030522537
 20
152.2354976685571
 10
142.1706725523484
 20
152.2419232145745
 10
141.9834965586387
 20
152.2501182110822
 10
141.7888546316095
 20
152.2597683203708
  0
LINE
  5
D89
330
BB1
100
AcDbEntity
  8
0
  6
Continuous
 62
     7
100
AcDbLine
 10
141.7888546316095
 20
152.2597683203708
 30
0.0
 11
142.0349865604936
 21
156.956245298623
 31
0.0
  0
LWPOLYLINE
  5
D8A
330
BB1
100
AcDbEntity
  8
0
  6
Continuous
 62
     7
100
AcDbPolyline
 90
        9
 70
   128
 43
0.0
 10
143.0336160952482
 20
156.93219500664
 10
143.0141756033541
 20
156.927700707894
 10
142.9571760910953
 20
156.9253862626911
 10
142.8648039042622
 20
156.9253404468353
 10
142.7406021879417
 20
156.9275650176978
 10
142.5893349811378
 20
156.9319746468092
 10
142.4168044812325
 20
156.9384001928266
 10
142.2296284875228
 20
156.9465951893343
 10
142.0349865604936
 20
156.956245298623
  0
LWPOLYLINE
  5
D8B
330
BB1
100
AcDbEntity
  8
0
  6
Continuous
 62
     7
100
AcDbPolyline
 90
        9
 70
   128
 43
0.0
 10
111.544129799083
 20
152.2617481241677
 10
111.3494878720538
 20
152.252098014879
 10
111.1623118783441
 20
152.2439030183714
 10
110.9897813784387
 20
152.237477472354
 10
110.8385141716349
 20
152.2330678432426
 10
110.7143124553144
 20
152.2308432723801
 10
110.6219402684812
 20
152.2308890882358
 10
110.5649407562225
 20
152.2332035334387
 10
110.5455002643284
 20
152.2376978321847
  0
LWPOLYLINE
  5
D8C
330
BB1
100
AcDbEntity
  8
0
  6
Continuous
 62
     7
100
AcDbPolyline
 90
        9
 70
   128
 43
0.0
 10
111.544129799083
 20
152.2617481241677
 10
111.5417148972307
 20
152.0721677019065
 10
111.5393881505758
 20
151.8905404094337
 10
111.5372344962392
 20
151.7234964912869
 10
111.5353325526636
 20
151.5771338307239
 10
111.5337517496734
 20
151.4567953485002
 10
111.5325497939614
 20
151.3668739613057
 10
111.5317705625255
 20
151.3106522197868
 10
111.5314425009525
 20
151.2901824801148
  0
LINE
  5
D8D
330
BB1
100
AcDbEntity
  8
0
  6
Continuous
 62
     7
100
AcDbLine
 10
111.2981016273193
 20
156.9562452986231
 30
0.0
 11
111.544129799083
 21
152.2617481241677
 31
0.0
  0
LWPOLYLINE
  5
D8E
330
BB1
100
AcDbEntity
  8
0
  6
Continuous
 62
     7
100
AcDbPolyline
 90
        9
 70
   128
 43
0.0
 10
111.2981016273193
 20
156.9562452986231
 10
111.1034597002901
 20
156.9465951893344
 10
110.9162837065803
 20
156.9384001928268
 10
110.7437532066751
 20
156.9319746468093
 10
110.5924859998712
 20
156.927565017698
 10
110.4682842835507
 20
156.9253404468355
 10
110.3759120967175
 20
156.9253862626912
 10
110.3189125844588
 20
156.9277007078941
 10
110.2994720925647
 20
156.9321950066401
  0
LINE
  5
D8F
330
BB1
100
AcDbEntity
  8
0
  6
Continuous
 62
     7
100
AcDbLine
 10
113.4826268454304
 20
152.2494430096651
 30
0.0
 11
113.4826268454304
 21
151.2779497917733
 31
0.0
  0
LINE
  5
D90
330
BB1
100
AcDbEntity
  8
0
  6
Continuous
 62
     7
100
AcDbLine
 10
111.544129799083
 20
152.2617481241677
 30
0.0
 11
113.4826268454304
 21
152.2494430096651
 31
0.0
  0
LINE
  5
D91
330
BB1
100
AcDbEntity
  8
0
  6
Continuous
 62
     7
100
AcDbLine
 10
140.0070347527423
 20
152.249443009665
 30
0.0
 11
140.0070347527423
 21
151.2779497917732
 31
0.0
  0
LINE
  5
D92
330
BB1
100
AcDbEntity
  8
0
  6
Continuous
 62
     7
100
AcDbLine
 10
140.0070347527423
 20
152.249443009665
 30
0.0
 11
141.7888546316095
 21
152.2597683203708
 31
0.0
  0
LINE
  5
D93
330
BB1
100
AcDbEntity
  8
0
  6
Continuous
 62
     7
100
AcDbLine
 10
113.4826268454304
 20
152.2494430096651
 30
0.0
 11
140.0070347527423
 21
152.249443009665
 31
0.0
  0
LINE
  5
D94
330
BB1
100
AcDbEntity
  8
0
  6
Continuous
 62
     7
100
AcDbLine
 10
111.2217152627331
 20
157.4420915198724
 30
0.0
 11
111.2981016273193
 21
156.9562452986231
 31
0.0
  0
LWPOLYLINE
  5
D95
330
BB1
100
AcDbEntity
  8
0
  6
Continuous
 62
     7
100
AcDbPolyline
 90
        9
 70
   128
 43
0.0
 10
111.2217152627331
 20
157.4420915198724
 10
111.0330481685449
 20
157.4600495931431
 10
110.8511575810817
 20
157.5132796643719
 10
110.6825766098634
 20
157.5998698265717
 10
110.5333603122921
 20
157.7167099517203
 10
110.4088682093182
 20
157.8596033997137
 10
110.3135717832456
 20
158.0234177524401
 10
110.2508938719302
 20
158.2022691589414
 10
110.2230857279785
 20
158.389733670388
  0
LINE
  5
D96
330
BB1
100
AcDbEntity
  8
0
  6
Continuous
 62
     7
100
AcDbLine
 10
142.0349865604936
 20
156.956245298623
 30
0.0
 11
142.1113729250798
 21
157.4420915198723
 31
0.0
  0
LWPOLYLINE
  5
D97
330
BB1
100
AcDbEntity
  8
0
  6
Continuous
 62
     7
100
AcDbPolyline
 90
        9
 70
   128
 43
0.0
 10
142.1113729250798
 20
157.4420915198723
 10
142.300040019268
 20
157.4600495931429
 10
142.4819306067312
 20
157.5132796643718
 10
142.6505115779494
 20
157.5998698265715
 10
142.7997278755207
 20
157.7167099517202
 10
142.9242199784947
 20
157.8596033997135
 10
143.0195164045673
 20
158.0234177524399
 10
143.0821943158827
 20
158.2022691589413
 10
143.1100024598344
 20
158.3897336703878
  0
LINE
  5
D98
330
BB1
100
AcDbEntity
  8
0
  6
Continuous
 62
     7
100
AcDbLine
 10
144.673318387712
 20
150.9476258714085
 30
0.0
 11
144.6750052145165
 21
150.8879383866434
 31
0.0
  0
LINE
  5
D99
330
BB1
100
AcDbEntity
  8
0
  6
Continuous
 62
     7
100
AcDbLine
 10
144.6767940934612
 20
150.9494344633669
 30
0.0
 11
144.6782635917001
 21
150.8945947268129
 31
0.0
  0
LINE
  5
D9A
330
BB1
100
AcDbEntity
  8
0
  6
Continuous
 62
     7
100
AcDbLine
 10
145.8379519660325
 20
150.7388964905962
 30
0.0
 11
144.7791573553665
 21
150.7388964905962
 31
0.0
  0
LINE
  5
D9B
330
BB1
100
AcDbEntity
  8
0
  6
Continuous
 62
     7
100
AcDbLine
 10
108.5539308324463
 20
150.7388964905963
 30
0.0
 11
107.4951362217804
 21
150.7388964905963
 31
0.0
  0
LINE
  5
D9C
330
BB1
100
AcDbEntity
  8
0
  6
Continuous
 62
     7
100
AcDbLine
 10
142.0349865604936
 20
156.956245298623
 30
0.0
 11
111.2981016273193
 21
156.9562452986231
 31
0.0
  0
LINE
  5
D9D
330
BB1
100
AcDbEntity
  8
0
  6
Continuous
 62
     7
100
AcDbLine
 10
111.2217152627331
 20
157.4420915198724
 30
0.0
 11
142.1113729250798
 21
157.4420915198723
 31
0.0
  0
LINE
  5
D9E
330
BB1
100
AcDbEntity
  8
0
  6
Continuous
 62
     7
100
AcDbLine
 10
144.6767919670415
 20
150.9494344087393
 30
0.0
 11
144.7217835711555
 21
150.9505017588313
 31
0.0
  0
LINE
  5
D9F
330
BB1
100
AcDbEntity
  8
0
  6
Continuous
 62
     7
100
AcDbLine
 10
144.7217835711678
 20
150.9505017588308
 30
0.0
 11
144.7190794702621
 21
150.8974346501799
 31
0.0
  0
LINE
  5
DA0
330
BB1
100
AcDbEntity
  8
0
  6
Continuous
 62
     7
100
AcDbLine
 10
145.0108430465221
 20
156.4622798409457
 30
0.0
 11
144.7217835711678
 21
150.9505017588308
 31
0.0
  0
LINE
  5
DA1
330
BB1
100
AcDbEntity
  8
0
  6
Continuous
 62
     7
100
AcDbLine
 10
145.0108430465221
 20
156.4622798409457
 30
0.0
 11
145.0108430465221
 21
156.4453084423898
 31
0.0
  0
LINE
  5
DA2
330
BB1
100
AcDbEntity
  8
0
  6
Continuous
 62
     7
100
AcDbLine
 10
145.0108430465221
 20
156.4453084423898
 30
0.0
 11
144.7405391901039
 21
151.2911619834625
 31
0.0
  0
LINE
  5
DA3
330
BB1
100
AcDbEntity
  8
0
  6
Continuous
 62
     7
100
AcDbLine
 10
144.7401136815006
 20
151.2972470399878
 30
0.0
 11
144.7191654932244
 21
150.8978048438845
 31
0.0
  0
LINE
  5
DA4
330
BB1
100
AcDbEntity
  8
0
  6
Continuous
 62
     7
100
AcDbLine
 10
108.6138418822305
 20
150.9009794935398
 30
0.0
 11
108.5930232601305
 21
151.2979442520722
 31
0.0
  0
LINE
  5
DA5
330
BB1
100
AcDbEntity
  8
0
  6
Continuous
 62
     7
100
AcDbLine
 10
108.5925977473275
 20
151.2918591354879
 30
0.0
 11
108.3223257841851
 21
156.44530844239
 31
0.0
  0
LINE
  5
DA6
330
BB1
100
AcDbEntity
  8
0
  6
Continuous
 62
     7
100
AcDbLine
 10
108.3223257841851
 20
156.4622798409459
 30
0.0
 11
108.3223257841851
 21
156.44530844239
 31
0.0
  0
LINE
  5
DA7
330
BB1
100
AcDbEntity
  8
0
  6
Continuous
 62
     7
100
AcDbLine
 10
108.6111598353623
 20
150.9548952660057
 30
0.0
 11
108.3223257841851
 21
156.4622798409459
 31
0.0
  0
LINE
  5
DA8
330
BB1
100
AcDbEntity
  8
0
  6
Continuous
 62
     7
100
AcDbLine
 10
108.6111598353623
 20
150.9548952660057
 30
0.0
 11
108.6139240015162
 21
150.9006516344463
 31
0.0
  0
LINE
  5
DA9
330
BB1
100
AcDbEntity
  8
0
  6
Continuous
 62
     7
100
AcDbLine
 10
108.6111598353762
 20
150.9548952660064
 30
0.0
 11
108.6569066427547
 21
150.9537535137125
 31
0.0
  0
LINE
  5
DAA
330
BB1
100
AcDbEntity
  8
0
  6
Continuous
 62
     7
100
AcDbLine
 10
145.0108430465221
 20
156.4622798409457
 30
0.0
 11
144.0103612309606
 21
156.4622798409457
 31
0.0
  0
LINE
  5
DAB
330
BB1
100
AcDbEntity
  8
0
  6
Continuous
 62
     7
100
AcDbLine
 10
143.8247103821141
 20
152.9198506179135
 30
0.0
 11
143.8466422692289
 21
152.9198506179139
 31
0.0
  0
LINE
  5
DAC
330
BB1
100
AcDbEntity
  8
0
  6
Continuous
 62
     7
100
AcDbLine
 10
109.3227269568522
 20
156.4622798409459
 30
0.0
 11
108.3223257841851
 21
156.4622798409459
 31
0.0
  0
LINE
  5
DAD
330
BB1
100
AcDbEntity
  8
0
  6
Continuous
 62
     7
100
AcDbLine
 10
109.486445918584
 20
152.9198506179139
 30
0.0
 11
109.5083778056987
 21
152.9198506179136
 31
0.0
  0
LINE
  5
DAE
330
BB1
100
AcDbEntity
  8
0
  6
Continuous
 62
     7
100
AcDbLine
 10
109.486445918584
 20
153.3383359537684
 30
0.0
 11
109.486445918584
 21
152.9198506179139
 31
0.0
  0
LINE
  5
DAF
330
BB1
100
AcDbEntity
  8
0
  6
Continuous
 62
     7
100
AcDbLine
 10
143.8466422692289
 20
153.3383359537684
 30
0.0
 11
143.8466422692289
 21
152.9198506179139
 31
0.0
  0
LINE
  5
DB0
330
BB1
100
AcDbEntity
  8
0
  6
Continuous
 62
     7
100
AcDbLine
 10
144.7401136815006
 20
151.2972470399878
 30
0.0
 11
144.7678075528795
 21
150.9012062280426
 31
0.0
  0
LINE
  5
DB1
330
BB1
100
AcDbEntity
  8
0
  6
Continuous
 62
     7
100
AcDbLine
 10
108.5655011546217
 20
150.9043598065086
 30
0.0
 11
108.5930232601305
 21
151.2979442520722
 31
0.0
  0
LINE
  5
DB2
330
BB1
100
AcDbEntity
  8
0
  6
Continuous
 62
     7
100
AcDbLine
 10
144.3574407275919
 20
156.7697252393066
 30
0.0
 11
144.0252564026788
 21
156.7464966484878
 31
0.0
  0
LINE
  5
DB3
330
BB1
100
AcDbEntity
  8
0
  6
Continuous
 62
     7
100
AcDbLine
 10
144.3574407275919
 20
156.7697252393066
 30
0.0
 11
144.378939404146
 21
156.4622798409457
 31
0.0
  0
LINE
  5
DB4
330
BB1
100
AcDbEntity
  8
0
  6
Continuous
 62
     7
100
AcDbLine
 10
108.975647460221
 20
156.7697252393068
 30
0.0
 11
109.307831785134
 21
156.746496648488
 31
0.0
  0
LINE
  5
DB5
330
BB1
100
AcDbEntity
  8
0
  6
Continuous
 62
     7
100
AcDbLine
 10
108.9541487836668
 20
156.4622798409459
 30
0.0
 11
108.975647460221
 21
156.7697252393068
 31
0.0
  0
LINE
  5
DB6
330
BB1
100
AcDbEntity
  8
0
  6
Continuous
 62
     7
100
AcDbLine
 10
142.1113729250798
 20
157.4420915198723
 30
0.0
 11
142.1152648341935
 21
157.5163535696476
 31
0.0
  0
LWPOLYLINE
  5
DB7
330
BB1
100
AcDbEntity
  8
0
  6
Continuous
 62
     7
100
AcDbPolyline
 90
        9
 70
   128
 43
0.0
 10
142.1152648341935
 20
157.5163535696476
 10
142.3039319283817
 20
157.5343116429183
 10
142.4858225158449
 20
157.5875417141472
 10
142.6544034870631
 20
157.6741318763469
 10
142.8036197846345
 20
157.7909720014956
 10
142.9281118876084
 20
157.933865449489
 10
143.0234083136811
 20
158.0976798022153
 10
143.0860862249964
 20
158.2765312087166
 10
143.1138943689481
 20
158.4639957201632
  0
LINE
  5
DB8
330
BB1
100
AcDbEntity
  8
0
  6
Continuous
 62
     7
100
AcDbLine
 10
111.2178233536193
 20
157.5163535696478
 30
0.0
 11
111.2217152627331
 21
157.4420915198724
 31
0.0
  0
LWPOLYLINE
  5
DB9
330
BB1
100
AcDbEntity
  8
0
  6
Continuous
 62
     7
100
AcDbPolyline
 90
        9
 70
   128
 43
0.0
 10
111.2178233536193
 20
157.5163535696478
 10
111.0291562594311
 20
157.5343116429185
 10
110.847265671968
 20
157.5875417141473
 10
110.6786847007497
 20
157.6741318763471
 10
110.5294684031784
 20
157.7909720014957
 10
110.4049763002044
 20
157.9338654494891
 10
110.3096798741318
 20
158.0976798022154
 10
110.2470019628164
 20
158.2765312087168
 10
110.2191938188647
 20
158.4639957201634
  0
LINE
  5
DBA
330
BB1
100
AcDbEntity
  8
0
  6
Continuous
 62
     7
100
AcDbLine
 10
142.1152648341935
 20
157.5163535696476
 30
0.0
 11
111.2178233536193
 21
157.5163535696478
 31
0.0
  0
LWPOLYLINE
  5
DBB
330
BB1
100
AcDbEntity
  8
0
  6
Continuous
 62
     7
100
AcDbPolyline
 90
        9
 70
   128
 43
0.0
 10
142.1152648341935
 20
158.4639957201632
 10
142.3097531668703
 20
158.4548330648253
 10
142.4967933814864
 20
158.4480255580626
 10
142.6692225928375
 20
158.4438338999049
 10
142.8204374581647
 20
158.4424186139391
 10
142.9446470585271
 20
158.4438338999049
 10
143.0370946676213
 20
158.4480255580626
 10
143.0942399151972
 20
158.4548330648253
 10
143.1138943689481
 20
158.4639957201632
  0
LINE
  5
DBC
330
BB1
100
AcDbEntity
  8
0
  6
Continuous
 62
     7
100
AcDbLine
 10
142.1152648341935
 20
158.4639957201632
 30
0.0
 11
142.393082075132
 21
163.7650644687177
 31
0.0
  0
ARC
  5
DBD
330
BB1
100
AcDbEntity
  8
0
  6
Continuous
 62
     7
100
AcDbCircle
 10
142.8923968425093
 20
154.212339910679
 30
0.0
 40
9.56576508799355
100
AcDbArc
 50
87.00790936348457
 51
92.99209063651543
  0
LINE
  5
DBE
330
BB1
100
AcDbEntity
  8
0
  6
Continuous
 62
     7
100
AcDbLine
 10
142.1152648341935
 20
157.5163535696476
 30
0.0
 11
142.1152648341935
 21
158.4639957201632
 31
0.0
  0
LWPOLYLINE
  5
DBF
330
BB1
100
AcDbEntity
  8
0
  6
Continuous
 62
     7
100
AcDbPolyline
 90
        9
 70
   128
 43
0.0
 10
110.2191938188647
 20
158.4639957201634
 10
110.2388482726156
 20
158.4548330648254
 10
110.2959935201915
 20
158.4480255580628
 10
110.3884411292857
 20
158.443833899905
 10
110.5126507296481
 20
158.4424186139393
 10
110.6638655949754
 20
158.443833899905
 10
110.8362948063264
 20
158.4480255580628
 10
111.0233350209425
 20
158.4548330648254
 10
111.2178233536193
 20
158.4639957201634
  0
LINE
  5
DC0
330
BB1
100
AcDbEntity
  8
0
  6
Continuous
 62
     7
100
AcDbLine
 10
111.2178233536193
 20
157.5163535696478
 30
0.0
 11
111.2178233536193
 21
158.4639957201634
 31
0.0
  0
ARC
  5
DC1
330
BB1
100
AcDbEntity
  8
0
  6
Continuous
 62
     7
100
AcDbCircle
 10
110.4406913453038
 20
154.2123399107267
 30
0.0
 40
9.565765087946079
100
AcDbArc
 50
87.00790936346825
 51
92.99209063653174
  0
LINE
  5
DC2
330
BB1
100
AcDbEntity
  8
0
  6
Continuous
 62
     7
100
AcDbLine
 10
110.9400061126809
 20
163.7650644687178
 30
0.0
 11
111.2178233536193
 21
158.4639957201634
 31
0.0
  0
LINE
  5
DC3
330
BB1
100
AcDbEntity
  8
0
  6
Continuous
 62
     7
100
AcDbLine
 10
111.2178233536193
 20
158.4639957201634
 30
0.0
 11
142.1152648341935
 21
158.4639957201632
 31
0.0
  0
LINE
  5
DC4
330
BB1
100
AcDbEntity
  8
0
  6
Continuous
 62
     7
100
AcDbLine
 10
110.9400061126809
 20
163.7650644687178
 30
0.0
 11
110.9400061126809
 21
164.2388964905963
 31
0.0
  0
LINE
  5
DC5
330
BB1
100
AcDbEntity
  8
0
  6
Continuous
 62
     7
100
AcDbLine
 10
109.442061810549
 20
164.2388964905964
 30
0.0
 11
110.9400061126809
 21
164.2388964905963
 31
0.0
  0
LINE
  5
DC6
330
BB1
100
AcDbEntity
  8
0
  6
Continuous
 62
     7
100
AcDbLine
 10
142.393082075132
 20
163.7650644687177
 30
0.0
 11
142.393082075132
 21
164.2388964905961
 31
0.0
  0
LINE
  5
DC7
330
BB1
100
AcDbEntity
  8
0
  6
Continuous
 62
     7
100
AcDbLine
 10
142.393082075132
 20
164.2388964905961
 30
0.0
 11
143.8910263772639
 21
164.2388964905963
 31
0.0
  0
LINE
  5
DC8
330
BB1
100
AcDbEntity
  8
0
  6
Continuous
 62
     7
100
AcDbLine
 10
142.393082075132
 20
163.7650644687177
 30
0.0
 11
110.9400061126809
 21
163.7650644687178
 31
0.0
  0
LINE
  5
DC9
330
BB1
100
AcDbEntity
  8
0
  6
Continuous
 62
     7
100
AcDbLine
 10
110.9400061126809
 20
164.2388964905963
 30
0.0
 11
142.393082075132
 21
164.2388964905961
 31
0.0
  0
LINE
  5
DCA
330
BB1
100
AcDbEntity
  8
0
  6
Continuous
 62
     7
100
AcDbLine
 10
144.0264737615395
 20
156.7697252393066
 30
0.0
 11
144.3574407275919
 21
156.7697252393066
 31
0.0
  0
LINE
  5
DCB
330
BB1
100
AcDbEntity
  8
0
  6
Continuous
 62
     7
100
AcDbLine
 10
108.975647460221
 20
156.7697252393067
 30
0.0
 11
109.3066144262733
 21
156.7697252393067
 31
0.0
  0
LWPOLYLINE
  5
DCC
330
BB1
100
AcDbEntity
  8
0
  6
Continuous
 62
     7
100
AcDbPolyline
 90
        8
 70
   128
 43
0.0
 10
145.9469571481106
 20
147.2509049748383
 10
145.8614106529866
 20
147.5033557777323
 10
145.777848680276
 20
147.722366894554
 10
145.6972821470728
 20
147.9052887698349
 10
145.620685732205
 20
148.0499084489907
 10
145.5489860847523
 20
148.1544763502315
 10
145.4830506136197
 20
148.2177274306746
 10
145.4236769937867
 20
148.2388964905962
  0
LINE
  5
DCD
330
BB1
100
AcDbEntity
  8
0
  6
Continuous
 62
     7
100
AcDbLine
 10
134.6165191066405
 20
148.7388964905962
 30
0.0
 11
134.6165191066405
 21
148.5736261261296
 31
0.0
  0
ARC
  5
DCE
330
BB1
100
AcDbEntity
  8
0
  6
Continuous
 62
     7
100
AcDbCircle
 10
134.4767894092156
 20
146.9687078993017
 30
0.0
 40
1.610989417454064
100
AcDbArc
 50
85.02417948922946
 51
102.922503242
  0
ARC
  5
DCF
330
BB1
100
AcDbEntity
  8
0
  6
Continuous
 62
     7
100
AcDbCircle
 10
134.5074549516492
 20
150.4505746334778
 30
0.0
 40
2.04931202735487
100
AcDbArc
 50
259.0026010676924
 51
273.0507162009806
  0
LINE
  5
DD0
330
BB1
100
AcDbEntity
  8
0
  6
Continuous
 62
     7
100
AcDbLine
 10
134.6165191066405
 20
148.5736261261296
 30
0.0
 11
134.6165191066405
 21
148.4041668550628
 31
0.0
  0
LINE
  5
DD1
330
BB1
100
AcDbEntity
  8
0
  6
Continuous
 62
     7
100
AcDbLine
 10
134.6165191066405
 20
148.4041668550628
 30
0.0
 11
134.6165191066405
 21
148.2388964905962
 31
0.0
  0
LINE
  5
DD2
330
BB1
100
AcDbEntity
  8
0
  6
Continuous
 62
     7
100
AcDbLine
 10
134.6165191066405
 20
148.2388964905962
 30
0.0
 11
133.9165191066405
 21
148.2388964905963
 31
0.0
  0
LWPOLYLINE
  5
DD3
330
BB1
100
AcDbEntity
  8
0
  6
Continuous
 62
     7
100
AcDbPolyline
 90
        9
 70
   128
 43
0.0
 10
135.8667015329029
 20
148.4564643721516
 10
135.8610302639762
 20
148.46019510536
 10
135.8492848702049
 20
148.4607648904573
 10
135.8318744243643
 20
148.4581538827644
 10
135.8094053036899
 20
148.452453019391
 10
135.7826600707536
 20
148.443860852046
 10
135.7525702180945
 20
148.432676631807
 10
135.720183725864
 20
148.4192898866969
 10
135.6866285623979
 20
148.4041668550628
  0
ARC
  5
DD4
330
BB1
100
AcDbEntity
  8
0
  6
Continuous
 62
     7
100
AcDbCircle
 10
135.416519106625
 20
148.2736261261039
 30
0.0
 40
0.3000000000256193
100
AcDbArc
 50
25.79393301235398
 51
90.0
  0
LINE
  5
DD5
330
BB1
100
AcDbEntity
  8
0
  6
Continuous
 62
     7
100
AcDbLine
 10
135.4165191066405
 20
148.7388964905962
 30
0.0
 11
135.4165191066405
 21
148.5736261261296
 31
0.0
  0
LINE
  5
DD6
330
BB1
100
AcDbEntity
  8
0
  6
Continuous
 62
     7
100
AcDbLine
 10
135.4165191066405
 20
148.5736261261296
 30
0.0
 11
134.6165191066405
 21
148.5736261261296
 31
0.0
  0
LWPOLYLINE
  5
DD7
330
BB1
100
AcDbEntity
  8
0
  6
Continuous
 62
     7
100
AcDbPolyline
 90
        9
 70
   128
 43
0.0
 10
135.9165191066405
 20
148.2388964905962
 10
135.9126761627211
 20
148.2584055227978
 10
135.9012950131427
 20
148.2771648338327
 10
135.882813029101
 20
148.2944535138982
 10
135.8579404628778
 20
148.3096071687149
 10
135.8276331532444
 20
148.3220434518264
 10
135.7930557931135
 20
148.3312844438473
 10
135.7555371710437
 20
148.3369750186365
 10
135.7165191066405
 20
148.3388964905962
  0
ARC
  5
DD8
330
BB1
100
AcDbEntity
  8
0
  6
Continuous
 62
     7
100
AcDbCircle
 10
135.6144285035594
 20
148.3316234941098
 30
0.0
 40
0.1023493415481794
100
AcDbArc
 50
4.074901710650512
 51
45.13589374308223
  0
ARC
  5
DD9
330
BB1
100
AcDbEntity
  8
0
  6
Continuous
 62
     7
100
AcDbCircle
 10
135.7165191066405
 20
148.0388964905962
 30
0.0
 40
0.2000000000000099
100
AcDbArc
 50
0.0
 51
90.0
  0
LINE
  5
DDA
330
BB1
100
AcDbEntity
  8
0
  6
Continuous
 62
     7
100
AcDbLine
 10
135.7165191066405
 20
148.2388964905962
 30
0.0
 11
135.7165191066405
 21
148.3388964905962
 31
0.0
  0
LINE
  5
DDB
330
BB1
100
AcDbEntity
  8
0
  6
Continuous
 62
     7
100
AcDbLine
 10
134.6165191066405
 20
148.4041668550628
 30
0.0
 11
135.6866285623979
 21
148.4041668550628
 31
0.0
  0
LINE
  5
DDC
330
BB1
100
AcDbEntity
  8
0
  6
Continuous
 62
     7
100
AcDbLine
 10
135.7165191066405
 20
148.2388964905962
 30
0.0
 11
134.6165191066405
 21
148.2388964905962
 31
0.0
  0
ENDBLK
  5
DDE
330
BB1
100
AcDbEntity
  8
0
100
AcDbBlockEnd
  0
BLOCK
  5
109C
330
103F
100
AcDbEntity
  8
0
100
AcDbBlockBegin
  2
108660CT
 70
     0
 10
0.0
 20
0.0
 30
0.0
  3
108660CT
  1

  0
ARC
  5
1040
330
103F
100
AcDbEntity
  8
BLOCKS
  6
Continuous
100
AcDbCircle
 10
-0.0160000000000764
 20
0.0029999999999291
 30
0.0
 40
0.0120000000000002
100
AcDbArc
 50
90.0
 51
99.59406822683019
  0
ARC
  5
1041
330
103F
100
AcDbEntity
  8
BLOCKS
  6
Continuous
100
AcDbCircle
 10
-0.0050000000001091
 20
0.0
 30
0.0
 40
0.015
100
AcDbArc
 50
70.52877936550945
 51
90.0
  0
LINE
  5
1042
330
103F
100
AcDbEntity
  8
BLOCKS
  6
Continuous
100
AcDbLine
 10
-0.0160000000000764
 20
0.0149999999999864
 30
0.0
 11
-0.0050000000001091
 21
0.0149999999999864
 31
0.0
  0
ARC
  5
1043
330
103F
100
AcDbEntity
  8
BLOCKS
  6
Continuous
100
AcDbCircle
 10
0.068867195212988
 20
0.0105524027553656
 30
0.0
 40
0.0200000000000001
100
AcDbArc
 50
12.84885231482914
 51
62.4707122918774
  0
LINE
  5
1044
330
103F
100
AcDbEntity
  8
BLOCKS
  6
Continuous
100
AcDbLine
 10
-0.2733909963117185
 20
0.0149999999999864
 30
0.0
 11
-0.2728051563071858
 21
0.0183224637676176
 31
0.0
  0
ARC
  5
1045
330
103F
100
AcDbEntity
  8
BLOCKS
  6
Continuous
100
AcDbCircle
 10
-0.2580330400119237
 20
0.0157177411025487
 30
0.0
 40
0.015
100
AcDbArc
 50
110.109031816556
 51
169.9999999999938
  0
LINE
  5
1046
330
103F
100
AcDbEntity
  8
BLOCKS
  6
Continuous
100
AcDbLine
 10
-0.2694893957946078
 20
0.1499999999999773
 30
0.0
 11
-0.2803073836353178
 21
0.1499999999999773
 31
0.0
  0
ARC
  5
1047
330
103F
100
AcDbEntity
  8
BLOCKS
  6
Continuous
100
AcDbCircle
 10
-0.2851535668814904
 20
0.1549999999999727
 30
0.0
 40
0.0050000000000001
100
AcDbArc
 50
90.0
 51
178.2099999999995
  0
LINE
  5
1048
330
103F
100
AcDbEntity
  8
BLOCKS
  6
Continuous
100
AcDbLine
 10
-0.264744572960808
 20
0.1599999999999682
 30
0.0
 11
-0.2851535668814904
 21
0.1599999999999682
 31
0.0
  0
ARC
  5
1049
330
103F
100
AcDbEntity
  8
BLOCKS
  6
Continuous
100
AcDbCircle
 10
-0.264744572960808
 20
0.1549999999999727
 30
0.0
 40
0.005
100
AcDbArc
 50
3.000000000005424
 51
90.0
  0
LINE
  5
104A
330
103F
100
AcDbEntity
  8
BLOCKS
  6
Continuous
100
AcDbLine
 10
-0.264744572960808
 20
0.1599999999999682
 30
0.0
 11
-0.2497651299395329
 21
0.1599999999999682
 31
0.0
  0
LINE
  5
104B
330
103F
100
AcDbEntity
  8
BLOCKS
  6
Continuous
100
AcDbLine
 10
-0.2845263444655757
 20
0.0149999999999864
 30
0.0
 11
-0.2733909963117185
 21
0.0149999999999864
 31
0.0
  0
ARC
  5
104C
330
103F
100
AcDbEntity
  8
BLOCKS
  6
Continuous
100
AcDbCircle
 10
-0.2580330400119237
 20
0.0157177411025487
 30
0.0
 40
0.005
100
AcDbArc
 50
88.36538561733727
 51
169.9999999999938
  0
LINE
  5
104D
330
103F
100
AcDbEntity
  8
BLOCKS
  6
Continuous
100
AcDbLine
 10
-0.2647085837561462
 20
0.0066527036445905
 30
0.0
 11
-0.2629570787767079
 21
0.0165859819909429
 31
0.0
  0
ARC
  5
104E
330
103F
100
AcDbEntity
  8
BLOCKS
  6
Continuous
100
AcDbCircle
 10
-0.2666781992620599
 20
0.0069999999999482
 30
0.0
 40
0.0020000000000002
100
AcDbArc
 50
270.0
 51
349.9999999999961
  0
LINE
  5
104F
330
103F
100
AcDbEntity
  8
BLOCKS
  6
Continuous
100
AcDbLine
 10
-0.2824352837251354
 20
0.0049999999999955
 30
0.0
 11
-0.2666781992620599
 21
0.0049999999999955
 31
0.0
  0
ARC
  5
1050
330
103F
100
AcDbEntity
  8
BLOCKS
  6
Continuous
100
AcDbCircle
 10
-0.2824352837251354
 20
0.0029999999999291
 30
0.0
 40
0.002
100
AcDbArc
 50
90.0
 51
169.9999999999961
  0
LINE
  5
1051
330
103F
100
AcDbEntity
  8
BLOCKS
  6
Continuous
100
AcDbLine
 10
-0.284404899231049
 20
0.0033472963552867
 30
0.0
 11
-0.2847037016472313
 21
0.001652703644595
 31
0.0
  0
LINE
  5
1052
330
103F
100
AcDbEntity
  8
BLOCKS
  6
Continuous
100
AcDbLine
 10
-0.2631901558775098
 20
0.0298033421173614
 30
0.0
 11
-0.2694893957946078
 21
0.1499999999999773
 31
0.0
  0
LINE
  5
1053
330
103F
100
AcDbEntity
  8
BLOCKS
  6
Continuous
100
AcDbLine
 10
-0.2803073836353178
 20
0.1499999999999773
 30
0.0
 11
-0.2845263444655757
 21
0.0149999999999864
 31
0.0
  0
LINE
  5
1054
330
103F
100
AcDbEntity
  8
BLOCKS
  6
Continuous
100
AcDbLine
 10
-0.2537001217365287
 20
0.0397959295904684
 30
0.0
 11
-0.2597514252870496
 21
0.1552616797812334
 31
0.0
  0
LINE
  5
1055
330
103F
100
AcDbEntity
  8
BLOCKS
  6
Continuous
100
AcDbLine
 10
-0.2901511270183619
 20
0.1551561815589366
 30
0.0
 11
-0.2949355445093715
 21
0.0020624726236065
 31
0.0
  0
LINE
  5
1056
330
103F
100
AcDbEntity
  8
BLOCKS
  6
Continuous
100
AcDbLine
 10
-0.2797796628824471
 20
0.0
 30
0.0
 11
-0.2866733171535998
 21
0.0
 31
0.0
  0
LINE
  5
1057
330
103F
100
AcDbEntity
  8
BLOCKS
  6
Continuous
100
AcDbLine
 10
-0.2866733171535998
 20
0.0
 30
0.0
 11
-0.292936520454532
 21
0.0
 31
0.0
  0
ARC
  5
1058
330
103F
100
AcDbEntity
  8
BLOCKS
  6
Continuous
100
AcDbCircle
 10
-0.2866733171535998
 20
0.0019999999999527
 30
0.0
 40
0.0020000000000002
100
AcDbArc
 50
270.0
 51
349.9999999999961
  0
ARC
  5
1059
330
103F
100
AcDbEntity
  8
BLOCKS
  6
Continuous
100
AcDbCircle
 10
-0.292936520454532
 20
0.0019999999999527
 30
0.0
 40
0.0020000000000002
100
AcDbArc
 50
178.2099999999995
 51
270.0
  0
ARC
  5
105A
330
103F
100
AcDbEntity
  8
BLOCKS
  6
Continuous
100
AcDbCircle
 10
-0.1322322704581893
 20
0.0171297817100822
 30
0.0
 40
0.0100000000000002
100
AcDbArc
 50
49.99999999999742
 51
88.36538561742846
  0
ARC
  5
105B
330
103F
100
AcDbEntity
  8
BLOCKS
  6
Continuous
100
AcDbCircle
 10
-0.1245387689009476
 20
0.0040000000000191
 30
0.0
 40
0.0020000000000002
100
AcDbArc
 50
197.1796293778403
 51
270.0
  0
ARC
  5
105C
330
103F
100
AcDbEntity
  8
BLOCKS
  6
Continuous
100
AcDbCircle
 10
-0.1455572044960718
 20
-0.0024981047343999
 30
0.0
 40
0.0200000000000003
100
AcDbArc
 50
17.17962937784031
 51
88.36538561742846
  0
ARC
  5
105D
330
103F
100
AcDbEntity
  8
BLOCKS
  6
Continuous
100
AcDbCircle
 10
-0.1169997501274338
 20
0.0029999999999291
 30
0.0
 40
0.0010000000000001
100
AcDbArc
 50
270.0
 51
0.0
  0
ARC
  5
105E
330
103F
100
AcDbEntity
  8
BLOCKS
  6
Continuous
100
AcDbCircle
 10
-0.1209997501273392
 20
0.0142316144898587
 30
0.0
 40
0.005
100
AcDbArc
 50
0.0
 51
49.99999999999742
  0
LINE
  5
105F
330
103F
100
AcDbEntity
  8
BLOCKS
  6
Continuous
100
AcDbLine
 10
-0.1159997501272301
 20
0.0142316144898587
 30
0.0
 11
-0.1159997501272301
 21
0.0029999999999291
 31
0.0
  0
LINE
  5
1060
330
103F
100
AcDbEntity
  8
BLOCKS
  6
Continuous
100
AcDbLine
 10
-0.1258043943612392
 20
0.0247902261412492
 30
0.0
 11
-0.1177858120786368
 21
0.0180618367054422
 31
0.0
  0
LINE
  5
1061
330
103F
100
AcDbEntity
  8
BLOCKS
  6
Continuous
100
AcDbLine
 10
-0.1245387689009476
 20
0.0019999999999527
 30
0.0
 11
-0.1169997501274338
 21
0.0019999999999527
 31
0.0
  0
LINE
  5
1062
330
103F
100
AcDbEntity
  8
BLOCKS
  6
Continuous
100
AcDbLine
 10
-0.1319470151283895
 20
0.0271257123519035
 30
0.0
 11
-0.2439990817188118
 21
0.0303233585110547
 31
0.0
  0
ARC
  5
1063
330
103F
100
AcDbEntity
  8
BLOCKS
  6
Continuous
100
AcDbCircle
 10
0.0797450727063733
 20
0.1549999999999727
 30
0.0
 40
0.005
100
AcDbArc
 50
90.0
 51
176.9999999999946
  0
LINE
  5
1064
330
103F
100
AcDbEntity
  8
BLOCKS
  6
Continuous
100
AcDbLine
 10
0.0647656296850983
 20
0.1599999999999682
 30
0.0
 11
0.0797450727063733
 21
0.1599999999999682
 31
0.0
  0
LINE
  5
1065
330
103F
100
AcDbEntity
  8
BLOCKS
  6
Continuous
100
AcDbLine
 10
-0.0672136881757979
 20
0.0180618367054422
 30
0.0
 11
-0.0592085418234092
 21
0.0247789520573179
 31
0.0
  0
ARC
  5
1066
330
103F
100
AcDbEntity
  8
BLOCKS
  6
Continuous
100
AcDbCircle
 10
-0.0527806657264591
 20
0.0171185076261509
 30
0.0
 40
0.0100000000000002
100
AcDbArc
 50
91.61880399180706
 51
130.0000000000026
  0
ARC
  5
1067
330
103F
100
AcDbEntity
  8
BLOCKS
  6
Continuous
100
AcDbCircle
 10
-0.0394456511603494
 20
-0.0025126170315843
 30
0.0
 40
0.0200000000000003
100
AcDbArc
 50
91.61880399180706
 51
162.7808062021678
  0
ARC
  5
1068
330
103F
100
AcDbEntity
  8
BLOCKS
  6
Continuous
100
AcDbCircle
 10
-0.0679997501274556
 20
0.0029999999999291
 30
0.0
 40
0.0010000000000002
100
AcDbArc
 50
180.0
 51
270.0
  0
LINE
  5
1069
330
103F
100
AcDbEntity
  8
BLOCKS
  6
Continuous
100
AcDbLine
 10
-0.0689997501272046
 20
0.0029999999999291
 30
0.0
 11
-0.0689997501272046
 21
0.0142316144898587
 31
0.0
  0
ARC
  5
106A
330
103F
100
AcDbEntity
  8
BLOCKS
  6
Continuous
100
AcDbCircle
 10
-0.0639997501270955
 20
0.0142316144898587
 30
0.0
 40
0.0050000000000001
100
AcDbArc
 50
130.0000000000026
 51
180.0
  0
ARC
  5
106B
330
103F
100
AcDbEntity
  8
BLOCKS
  6
Continuous
100
AcDbCircle
 10
-0.0604595946119844
 20
0.0040000000000191
 30
0.0
 40
0.0020000000000002
100
AcDbArc
 50
270.0
 51
342.7808062021678
  0
LINE
  5
106C
330
103F
100
AcDbEntity
  8
BLOCKS
  6
Continuous
100
AcDbLine
 10
-0.0679997501274556
 20
0.0019999999999527
 30
0.0
 11
-0.0604595946119844
 21
0.0019999999999527
 31
0.0
  0
LINE
  5
106D
330
103F
100
AcDbEntity
  8
BLOCKS
  6
Continuous
100
AcDbLine
 10
0.0
 20
0.0186101409568664
 30
0.0
 11
0.0
 21
0.0141421356237288
 31
0.0
  0
LINE
  5
106E
330
103F
100
AcDbEntity
  8
BLOCKS
  6
Continuous
100
AcDbLine
 10
0.0
 20
0.0186101409568664
 30
0.0
 11
-0.0180000000000291
 21
0.0181014433194378
 31
0.0
  0
LINE
  5
106F
330
103F
100
AcDbEntity
  8
BLOCKS
  6
Continuous
100
AcDbLine
 10
-0.0180000000000291
 20
0.01483215956614
 30
0.0
 11
-0.0180000000000291
 21
0.0181014433194378
 31
0.0
  0
LINE
  5
1070
330
103F
100
AcDbEntity
  8
BLOCKS
  6
Continuous
100
AcDbLine
 10
-0.0160000000000764
 20
0.0049999999999955
 30
0.0
 11
-0.0050000000001091
 21
0.0049999999999955
 31
0.0
  0
ARC
  5
1071
330
103F
100
AcDbEntity
  8
BLOCKS
  6
Continuous
100
AcDbCircle
 10
-0.0160000000000764
 20
0.0029999999999291
 30
0.0
 40
0.0020000000000002
100
AcDbArc
 50
90.0
 51
180.0
  0
LINE
  5
1072
330
103F
100
AcDbEntity
  8
BLOCKS
  6
Continuous
100
AcDbLine
 10
-0.0180000000000291
 20
0.0019999999999527
 30
0.0
 11
-0.0180000000000291
 21
0.0029999999999291
 31
0.0
  0
LINE
  5
1073
330
103F
100
AcDbEntity
  8
BLOCKS
  6
Continuous
100
AcDbLine
 10
-0.0256814546910391
 20
0.0130029301096784
 30
0.0
 11
-0.0250993299359834
 21
0.0018953280874712
 31
0.0
  0
ARC
  5
1074
330
103F
100
AcDbEntity
  8
BLOCKS
  6
Continuous
100
AcDbCircle
 10
-0.0306746023647975
 20
0.0127412503285314
 30
0.0
 40
0.0050000000000001
100
AcDbArc
 50
3.000000000005424
 51
91.61880399180706
  0
LINE
  5
1075
330
103F
100
AcDbEntity
  8
BLOCKS
  6
Continuous
100
AcDbLine
 10
-0.0308158508692031
 20
0.0177392548163198
 30
0.0
 11
-0.0400106451766078
 21
0.0174794009195694
 31
0.0
  0
LWPOLYLINE
  5
1076
330
103F
100
AcDbEntity
  8
BLOCKS
  6
Continuous
100
AcDbPolyline
 90
        9
 70
   128
 43
0.0
 10
0.0619874572753361
 20
0.0927745707905388
 10
0.0638741282173214
 20
0.0929541515232586
 10
0.0656930340919644
 20
0.0934864522355383
 10
0.0673788438039083
 20
0.0943523538575164
 10
0.0688710067797729
 20
0.0955207551089643
 10
0.0701159278096384
 20
0.0969496895888824
 10
0.0710688920703433
 20
0.0985878331161985
 10
0.0716956711835337
 20
0.1003763471811681
 10
0.0719737526228528
 20
0.1022509922956942
  0
ARC
  5
1077
330
103F
100
AcDbEntity
  8
BLOCKS
  6
Continuous
100
AcDbCircle
 10
0.0816786990076253
 20
0.0069999999999482
 30
0.0
 40
0.0020000000000001
100
AcDbArc
 50
190.0000000000039
 51
270.0
  0
LINE
  5
1078
330
103F
100
AcDbEntity
  8
BLOCKS
  6
Continuous
100
AcDbLine
 10
0.0787152727430112
 20
0.0122888845320404
 30
0.0
 11
0.0797090835017116
 21
0.0066527036445905
 31
0.0
  0
ARC
  5
1079
330
103F
100
AcDbEntity
  8
BLOCKS
  6
Continuous
100
AcDbCircle
 10
0.068867195212988
 20
0.0105524027553656
 30
0.0
 40
0.0100000000000001
100
AcDbArc
 50
10.00000000000388
 51
91.61880399185916
  0
ARC
  5
107A
330
103F
100
AcDbEntity
  8
BLOCKS
  6
Continuous
100
AcDbCircle
 10
0.058712130215099
 20
0.0402773885216448
 30
0.0
 40
0.0100000000000002
100
AcDbArc
 50
271.618803991807
 51
356.9999999999946
  0
LINE
  5
107B
330
103F
100
AcDbEntity
  8
BLOCKS
  6
Continuous
100
AcDbLine
 10
0.0685846982046314
 20
0.0205484117309425
 30
0.0
 11
0.0100000000002183
 21
0.018892750755299
 31
0.0
  0
LINE
  5
107C
330
103F
100
AcDbEntity
  8
BLOCKS
  6
Continuous
100
AcDbLine
 10
0.0589946272234556
 20
0.0302813795460679
 30
0.0
 11
-0.0530631627348157
 21
0.0271145166017277
 31
0.0
  0
LINE
  5
107D
330
103F
100
AcDbEntity
  8
BLOCKS
  6
Continuous
100
AcDbLine
 10
0.0844898955397184
 20
0.1499999999999773
 30
0.0
 11
0.0781112344830035
 21
0.0282878964890188
 31
0.0
  0
LINE
  5
107E
330
103F
100
AcDbEntity
  8
BLOCKS
  6
Continuous
100
AcDbLine
 10
0.074751925032615
 20
0.1552616797812334
 30
0.0
 11
0.0686984255626158
 21
0.0397540289592371
 31
0.0
  0
LINE
  5
107F
330
103F
100
AcDbEntity
  8
BLOCKS
  6
Continuous
100
AcDbLine
 10
0.0619874572757908
 20
0.0927745707905388
 30
0.0
 11
-0.2469869575302255
 21
0.0927745707905388
 31
0.0
  0
LINE
  5
1080
330
103F
100
AcDbEntity
  8
BLOCKS
  6
Continuous
100
AcDbLine
 10
-0.0199999999999818
 20
0.0
 30
0.0
 11
-0.023102070866571
 21
0.0
 31
0.0
  0
LINE
  5
1081
330
103F
100
AcDbEntity
  8
BLOCKS
  6
Continuous
100
AcDbLine
 10
-0.023102070866571
 20
0.0
 30
0.0
 11
-0.0300479736811212
 21
0.0
 31
0.0
  0
LINE
  5
1082
330
103F
100
AcDbEntity
  8
BLOCKS
  6
Continuous
100
AcDbLine
 10
-0.01299999999992
 20
0.0
 30
0.0
 11
-0.0199999999999818
 21
0.0
 31
0.0
  0
ARC
  5
1083
330
103F
100
AcDbEntity
  8
BLOCKS
  6
Continuous
100
AcDbCircle
 10
-0.0019999999999527
 20
-0.0020000000000664
 30
0.0
 40
0.0020000000000002
100
AcDbArc
 50
0.0
 51
90.0
  0
LINE
  5
1084
330
103F
100
AcDbEntity
  8
BLOCKS
  6
Continuous
100
AcDbLine
 10
-0.0019999999999527
 20
0.0
 30
0.0
 11
-0.01299999999992
 21
0.0
 31
0.0
  0
LINE
  5
1085
330
103F
100
AcDbEntity
  8
BLOCKS
  6
Continuous
100
AcDbLine
 10
0.0
 20
0.0
 30
0.0
 11
0.0
 21
-0.0550000000000637
 31
0.0
  0
ARC
  5
1086
330
103F
100
AcDbEntity
  8
BLOCKS
  6
Continuous
100
AcDbCircle
 10
0.0050000000001091
 20
-0.0550000000000637
 30
0.0
 40
0.005
100
AcDbArc
 50
180.0
 51
270.0
  0
LINE
  5
1087
330
103F
100
AcDbEntity
  8
BLOCKS
  6
Continuous
100
AcDbLine
 10
0.0100000000002183
 20
-0.0500000000000682
 30
0.0
 11
0.0100000000002183
 21
0.018892750755299
 31
0.0
  0
ARC
  5
1088
330
103F
100
AcDbEntity
  8
BLOCKS
  6
Continuous
100
AcDbCircle
 10
-0.0050000000001091
 20
0.0
 30
0.0
 40
0.005
100
AcDbArc
 50
0.0
 51
90.0
  0
ARC
  5
1089
330
103F
100
AcDbEntity
  8
BLOCKS
  6
Continuous
100
AcDbCircle
 10
-0.0199999999999818
 20
0.0019999999999527
 30
0.0
 40
0.0020000000000002
100
AcDbArc
 50
270.0
 51
0.0
  0
ARC
  5
108A
330
103F
100
AcDbEntity
  8
BLOCKS
  6
Continuous
100
AcDbCircle
 10
-0.023102070866571
 20
0.0019999999999527
 30
0.0
 40
0.002
100
AcDbArc
 50
183.0000000000054
 51
270.0
  0
ARC
  5
108B
330
103F
100
AcDbEntity
  8
BLOCKS
  6
Continuous
100
AcDbCircle
 10
0.1001540666270557
 20
0.1549999999999727
 30
0.0
 40
0.005
100
AcDbArc
 50
1.790000000000535
 51
90.0
  0
LINE
  5
108C
330
103F
100
AcDbEntity
  8
BLOCKS
  6
Continuous
100
AcDbLine
 10
0.0883663972158502
 20
0.0149999999999864
 30
0.0
 11
0.099526844211141
 21
0.0149999999999864
 31
0.0
  0
LINE
  5
108D
330
103F
100
AcDbEntity
  8
BLOCKS
  6
Continuous
100
AcDbLine
 10
0.099526844211141
 20
0.0149999999999864
 30
0.0
 11
0.0953078833808832
 21
0.1499999999999773
 31
0.0
  0
LINE
  5
108E
330
103F
100
AcDbEntity
  8
BLOCKS
  6
Continuous
100
AcDbLine
 10
0.1015581957217364
 20
-0.0500000000000682
 30
0.0
 11
0.0999956176365231
 21
0.0
 31
0.0
  0
ARC
  5
108F
330
103F
100
AcDbEntity
  8
BLOCKS
  6
Continuous
100
AcDbCircle
 10
0.1098121139025352
 20
-0.0579999999999927
 30
0.0
 40
0.0020000000000002
100
AcDbArc
 50
270.0
 51
1.790000000000535
  0
LINE
  5
1090
330
103F
100
AcDbEntity
  8
BLOCKS
  6
Continuous
100
AcDbLine
 10
0.0999956176365231
 20
0.0
 30
0.0
 11
0.099113982732888
 21
0.0049999999999955
 31
0.0
  0
LINE
  5
1091
330
103F
100
AcDbEntity
  8
BLOCKS
  6
Continuous
100
AcDbLine
 10
0.1118111379573747
 20
-0.0579375273764526
 30
0.0
 11
0.1051516267634724
 21
0.1551561815589366
 31
0.0
  0
LINE
  5
1092
330
103F
100
AcDbEntity
  8
BLOCKS
  6
Continuous
100
AcDbLine
 10
0.0816786990076253
 20
0.0049999999999955
 30
0.0
 11
0.099113982732888
 21
0.0049999999999955
 31
0.0
  0
LINE
  5
1093
330
103F
100
AcDbEntity
  8
BLOCKS
  6
Continuous
100
AcDbLine
 10
0.0100000000002183
 20
-0.0500000000000682
 30
0.0
 11
0.1015581957217364
 21
-0.0500000000000682
 31
0.0
  0
LINE
  5
1094
330
103F
100
AcDbEntity
  8
BLOCKS
  6
Continuous
100
AcDbLine
 10
0.0953078833808832
 20
0.1499999999999773
 30
0.0
 11
0.0844898955397184
 21
0.1499999999999773
 31
0.0
  0
LINE
  5
1095
330
103F
100
AcDbEntity
  8
BLOCKS
  6
Continuous
100
AcDbLine
 10
0.1001540666270557
 20
0.1599999999999682
 30
0.0
 11
0.0797450727063733
 21
0.1599999999999682
 31
0.0
  0
LINE
  5
1096
330
103F
100
AcDbEntity
  8
BLOCKS
  6
Continuous
100
AcDbLine
 10
0.0050000000001091
 20
-0.0600000000000591
 30
0.0
 11
0.1098121139025352
 21
-0.0600000000000591
 31
0.0
  0
LINE
  5
1097
330
103F
100
AcDbEntity
  8
BLOCKS
  6
Continuous
100
AcDbLine
 10
-0.1449866938360174
 20
0.0174937565493565
 30
0.0
 11
-0.2578904123470238
 21
0.0207157064235162
 31
0.0
  0
ARC
  5
1098
330
103F
100
AcDbEntity
  8
BLOCKS
  6
Continuous
100
AcDbCircle
 10
-0.2437138263885572
 20
0.0403192891529898
 30
0.0
 40
0.0100000000000005
100
AcDbArc
 50
183.0000000000054
 51
268.3653856174284
  0
LINE
  5
1099
330
103F
100
AcDbEntity
  8
BLOCKS
  6
Continuous
100
AcDbLine
 10
-0.0300479736811212
 20
0.0
 30
0.0
 11
-0.2797796628824471
 21
0.0
 31
0.0
  0
LWPOLYLINE
  5
109A
330
103F
100
AcDbEntity
  8
BLOCKS
  6
Continuous
100
AcDbPolyline
 90
        9
 70
   128
 43
0.0
 10
-0.2469869575302255
 20
0.0927745707905388
 10
-0.2488736284722108
 20
0.0929541515232586
 10
-0.2506925343468538
 20
0.0934864522355383
 10
-0.2523783440592524
 20
0.0943523538575164
 10
-0.2538705070346623
 20
0.0955207551089643
 10
-0.2551154280645278
 20
0.0969496895888824
 10
-0.2560683923252327
 20
0.0985878331161985
 10
-0.2566951714384231
 20
0.1003763471811681
 10
-0.2569732528777422
 20
0.1022509922956942
  0
LINE
  5
109B
330
103F
100
AcDbEntity
  8
BLOCKS
  6
Continuous
100
AcDbLine
 10
-0.2497651299395329
 20
0.1599999999999682
 30
0.0
 11
0.0647656296850983
 21
0.1599999999999682
 31
0.0
  0
ENDBLK
  5
109D
330
103F
100
AcDbEntity
  8
0
100
AcDbBlockEnd
  0
ENDSEC
  0
SECTION
  2
ENTITIES
  0
LINE
  5
DE4
330
1F
100
AcDbEntity
  8
SANINDUSA
100
AcDbLine
 10
206.2245785687974
 20
229.1827648659256
 30
0.0
 11
206.2215800327154
 21
229.1827648659256
 31
0.0
  0
ARC
  5
DE5
330
1F
100
AcDbEntity
  8
SANINDUSA
100
AcDbCircle
 10
206.2215800327154
 20
229.1847648659256
 30
0.0
 40
0.002
100
AcDbArc
 50
178.2099999999089
 51
270.0
  0
LINE
  5
DE6
330
1F
100
AcDbEntity
  8
SANINDUSA
100
AcDbLine
 10
206.8462037607748
 20
229.1827648659256
 30
0.0
 11
206.8432052246928
 21
229.1827648659256
 31
0.0
  0
ARC
  5
DE9
330
1F
100
AcDbEntity
  8
SANINDUSA
100
AcDbCircle
 10
206.8462037607748
 20
229.1847648659256
 30
0.0
 40
0.0020000000000001
100
AcDbArc
 50
270.0
 51
1.789999999928281
  0
LINE
  5
DEB
330
1F
100
AcDbEntity
  8
SANINDUSA
100
AcDbLine
 10
206.8432052246928
 20
229.1827648659256
 30
0.0
 11
206.2245785687974
 21
229.1827648659256
 31
0.0
  0
LINE
  5
DEE
330
1F
100
AcDbEntity
  8
SANINDUSA
100
AcDbLine
 10
206.2195810086607
 20
229.1848273385492
 30
0.0
 11
206.2262405198542
 21
229.3979210474846
 31
0.0
  0
LINE
  5
DF0
330
1F
100
AcDbEntity
  8
SANINDUSA
100
AcDbLine
 10
206.841543273636
 20
229.3979210474846
 30
0.0
 11
206.8482027848296
 21
229.1848273385492
 31
0.0
  0
ARC
  5
DF4
330
1F
100
AcDbEntity
  8
SANINDUSA
100
AcDbCircle
 10
206.231238079991
 20
229.3977648659256
 30
0.0
 40
0.005
100
AcDbArc
 50
90.0
 51
178.2099999999089
  0
LINE
  5
DF5
330
1F
100
AcDbEntity
  8
SANINDUSA
100
AcDbLine
 10
206.231238079991
 20
229.4027648659256
 30
0.0
 11
206.8365457134992
 21
229.4027648659256
 31
0.0
  0
ARC
  5
DF7
330
1F
100
AcDbEntity
  8
SANINDUSA
100
AcDbCircle
 10
206.8365457134992
 20
229.3977648659256
 30
0.0
 40
0.005
100
AcDbArc
 50
1.790000000091045
 51
90.0
  0
LINE
  5
DFF
330
1F
100
AcDbEntity
  8
SANINDUSA
100
AcDbLine
 10
205.9858234873925
 20
229.4912048150487
 30
0.0
 11
205.3709470189016
 21
229.4912048150487
 31
0.0
  0
LINE
  5
E00
330
1F
100
AcDbEntity
  8
SANINDUSA
100
AcDbLine
 10
205.9908220234746
 20
229.1982682945938
 30
0.0
 11
205.9908220234746
 21
229.4862062789666
 31
0.0
  0
LINE
  5
E01
330
1F
100
AcDbEntity
  8
SANINDUSA
100
AcDbLine
 10
205.3659484828196
 20
229.4862062789666
 30
0.0
 11
205.3659484828196
 21
229.1982682945938
 31
0.0
  0
ARC
  5
E02
330
1F
100
AcDbEntity
  8
SANINDUSA
100
AcDbCircle
 10
205.3574871478106
 20
229.1954492156993
 30
0.0
 40
0.0084214574025678
100
AcDbArc
 50
354.4759558755228
 51
359.8024417925794
  0
ARC
  5
E03
330
1F
100
AcDbEntity
  8
SANINDUSA
100
AcDbCircle
 10
206.0007005089004
 20
229.1954853592676
 30
0.0
 40
0.0098361341711275
100
AcDbArc
 50
181.6064090278497
 51
184.9200729491288
  0
LWPOLYLINE
  5
E04
330
1F
100
AcDbEntity
  8
SANINDUSA
100
AcDbPolyline
 90
       10
 70
   128
 43
0.0
 10
205.9926971171768
 20
229.1912682945938
 10
205.9926957654219
 20
229.1917812261293
 10
205.9926856699147
 20
229.1927217315658
 10
205.9926662563131
 20
229.1935270902283
 10
205.9926369401371
 20
229.1941439204602
 10
205.9926020494567
 20
229.1944904755718
 10
205.9925616805905
 20
229.1947038992987
 10
205.9924768285242
 20
229.1949785217643
 10
205.9922530683839
 20
229.1954020813456
 10
205.9921114820656
 20
229.1955468021976
  0
LINE
  5
E05
330
1F
100
AcDbEntity
  8
SANINDUSA
100
AcDbLine
 10
205.3640733891173
 20
229.1912682945938
 30
0.0
 11
205.3640733891173
 21
229.0894547167735
 31
0.0
  0
LINE
  5
E06
330
1F
100
AcDbEntity
  8
SANINDUSA
100
AcDbLine
 10
205.9926971171768
 20
229.0894547167735
 30
0.0
 11
205.9926971171768
 21
229.1912682945938
 31
0.0
  0
LINE
  5
E07
330
1F
100
AcDbEntity
  8
SANINDUSA
100
AcDbLine
 10
205.3690719251994
 20
229.0844561806915
 30
0.0
 11
205.9876985810948
 21
229.0844561806915
 31
0.0
  0
LINE
  5
E08
330
1F
100
AcDbEntity
  8
SANINDUSA
100
AcDbLine
 10
205.375731436393
 20
229.4864194216121
 30
0.0
 11
205.9810390699012
 21
229.4864194216121
 31
0.0
  0
LWPOLYLINE
  5
E0D
330
1F
100
AcDbEntity
  8
SANINDUSA
100
AcDbPolyline
 90
        9
 70
   128
 43
0.0
 10
205.3707338762562
 20
229.4814218614753
 10
205.3708307348058
 20
229.4823962397405
 10
205.3711156914272
 20
229.4833332195497
 10
205.3715778089534
 20
229.4841968378693
 10
205.3721993504515
 20
229.4849539474167
 10
205.372956459999
 20
229.4855754889148
 10
205.3738200783186
 20
229.4860376064411
 10
205.3747570581278
 20
229.4863225630624
 10
205.375731436393
 20
229.4864194216121
  0
LWPOLYLINE
  5
E0E
330
1F
100
AcDbEntity
  8
SANINDUSA
100
AcDbPolyline
 90
        9
 70
   128
 43
0.0
 10
205.9810390699012
 20
229.4864194216121
 10
205.9820134481664
 20
229.4863225630624
 10
205.9829504279755
 20
229.4860376064411
 10
205.9838140462951
 20
229.4855754889148
 10
205.9845711558426
 20
229.4849539474167
 10
205.9851926973407
 20
229.4841968378693
 10
205.9856548148669
 20
229.4833332195497
 10
205.9859397714883
 20
229.4823962397405
 10
205.986036630038
 20
229.4814218614753
  0
LINE
  5
E10
330
1F
100
AcDbEntity
  8
SANINDUSA
100
AcDbLine
 10
205.3707338762562
 20
229.096114227967
 30
0.0
 11
205.3707338762562
 21
229.4814218614753
 31
0.0
  0
LINE
  5
E14
330
1F
100
AcDbEntity
  8
SANINDUSA
100
AcDbLine
 10
205.986036630038
 20
229.4814218614753
 30
0.0
 11
205.986036630038
 21
229.096114227967
 31
0.0
  0
ARC
  5
E20
330
1F
100
AcDbEntity
  8
SANINDUSA
100
AcDbCircle
 10
205.4110949863765
 20
229.4460583114918
 30
0.0
 40
0.0099614394771841
100
AcDbArc
 50
89.85685611365141
 51
180.1431438863486
  0
LINE
  5
E23
330
1F
100
AcDbEntity
  8
SANINDUSA
100
AcDbLine
 10
205.9456506329593
 20
229.456019719881
 30
0.0
 11
205.4111198733348
 21
229.456019719881
 31
0.0
  0
ARC
  5
E25
330
1F
100
AcDbEntity
  8
SANINDUSA
100
AcDbCircle
 10
205.9456755199176
 20
229.4460583114918
 30
0.0
 40
0.0099614394771806
100
AcDbArc
 50
359.8568561084404
 51
90.1431438863486
  0
LINE
  5
E26
330
1F
100
AcDbEntity
  8
SANINDUSA
100
AcDbLine
 10
205.4011335779873
 20
229.4460334245334
 30
0.0
 11
205.4011335779873
 21
229.131502664909
 31
0.0
  0
LINE
  5
E28
330
1F
100
AcDbEntity
  8
SANINDUSA
100
AcDbLine
 10
205.9556369283069
 20
229.131502664909
 30
0.0
 11
205.9556369283069
 21
229.4460334245334
 31
0.0
  0
ARC
  5
E2A
330
1F
100
AcDbEntity
  8
SANINDUSA
100
AcDbCircle
 10
205.9456755199177
 20
229.1314777779506
 30
0.0
 40
0.0099614394771724
100
AcDbArc
 50
269.8568561136514
 51
0.1431438956306871
  0
ARC
  5
E2C
330
1F
100
AcDbEntity
  8
SANINDUSA
100
AcDbCircle
 10
205.4110949863765
 20
229.1314777779506
 30
0.0
 40
0.0099614394771767
100
AcDbArc
 50
179.8568561136514
 51
270.1431438863486
  0
LINE
  5
E2E
330
1F
100
AcDbEntity
  8
SANINDUSA
100
AcDbLine
 10
205.4111198733348
 20
229.1215163695614
 30
0.0
 11
205.9456506329593
 21
229.1215163695614
 31
0.0
  0
LWPOLYLINE
  5
E30
330
1F
100
AcDbEntity
  8
SANINDUSA
100
AcDbPolyline
 90
        9
 70
   128
 43
0.0
 10
205.375731436393
 20
229.0911166678303
 10
205.3747570581278
 20
229.09121352638
 10
205.3738200783186
 20
229.0914984830013
 10
205.372956459999
 20
229.0919606005275
 10
205.3721993504515
 20
229.0925821420257
 10
205.3715778089534
 20
229.0933392515731
 10
205.3711156914272
 20
229.0942028698927
 10
205.3708307348058
 20
229.0951398497019
 10
205.3707338762562
 20
229.096114227967
  0
LINE
  5
E32
330
1F
100
AcDbEntity
  8
SANINDUSA
100
AcDbLine
 10
205.9810390699012
 20
229.0911166678303
 30
0.0
 11
205.375731436393
 21
229.0911166678303
 31
0.0
  0
LWPOLYLINE
  5
E33
330
1F
100
AcDbEntity
  8
SANINDUSA
100
AcDbPolyline
 90
        9
 70
   128
 43
0.0
 10
205.986036630038
 20
229.096114227967
 10
205.9859397714883
 20
229.0951398497019
 10
205.9856548148669
 20
229.0942028698927
 10
205.9851926973407
 20
229.0933392515731
 10
205.9845711558426
 20
229.0925821420257
 10
205.9838140462951
 20
229.0919606005275
 10
205.9829504279755
 20
229.0914984830013
 10
205.9820134481664
 20
229.09121352638
 10
205.9810390699012
 20
229.0911166678303
  0
LWPOLYLINE
  5
E34
330
1F
100
AcDbEntity
  8
SANINDUSA
100
AcDbPolyline
 90
        9
 70
   128
 43
0.0
 10
205.4071736359327
 20
229.439993366588
 10
205.4073701804702
 20
229.4419382499148
 10
205.407941632946
 20
229.443808652061
 10
205.4088661090369
 20
229.4455329441745
 10
205.4101082050405
 20
229.4470450928277
 10
205.4116203536938
 20
229.4482871888313
 10
205.4133446458073
 20
229.4492116649223
 10
205.4152150479535
 20
229.449783117398
 10
205.4171599312802
 20
229.4499796619356
  0
LINE
  5
E35
330
1F
100
AcDbEntity
  8
SANINDUSA
100
AcDbLine
 10
205.4071736359327
 20
229.439993366588
 30
0.0
 11
205.4011335779873
 21
229.4460334245334
 31
0.0
  0
LINE
  5
E36
330
1F
100
AcDbEntity
  8
SANINDUSA
100
AcDbLine
 10
205.4111198733348
 20
229.456019719881
 30
0.0
 11
205.4171599312802
 21
229.4499796619356
 31
0.0
  0
LWPOLYLINE
  5
E37
330
1F
100
AcDbEntity
  8
SANINDUSA
100
AcDbPolyline
 90
        9
 70
   128
 43
0.0
 10
205.94287246055
 20
229.4532415474716
 10
205.9448173438767
 20
229.4530450029341
 10
205.9466877460228
 20
229.4524735504583
 10
205.9484120381364
 20
229.4515490743674
 10
205.9499241867897
 20
229.4503069783638
 10
205.9511662827933
 20
229.4487948297105
 10
205.9520907588842
 20
229.447070537597
 10
205.95266221136
 20
229.4452001354508
 10
205.9528587558975
 20
229.4432552521241
  0
LINE
  5
E38
330
1F
100
AcDbEntity
  8
SANINDUSA
100
AcDbLine
 10
205.94287246055
 20
229.4532415474716
 30
0.0
 11
205.9456506329593
 21
229.456019719881
 31
0.0
  0
LINE
  5
E39
330
1F
100
AcDbEntity
  8
SANINDUSA
100
AcDbLine
 10
205.9556369283069
 20
229.4460334245334
 30
0.0
 11
205.9528587558975
 21
229.4432552521241
 31
0.0
  0
LWPOLYLINE
  5
E3A
330
1F
100
AcDbEntity
  8
SANINDUSA
100
AcDbPolyline
 90
        9
 70
   128
 43
0.0
 10
205.4171609514519
 20
229.1275574476785
 10
205.4152160681252
 20
229.127753992216
 10
205.4133456659791
 20
229.1283254446918
 10
205.4116213738655
 20
229.1292499207828
 10
205.4101092252123
 20
229.1304920167864
 10
205.4088671292086
 20
229.1320041654397
 10
205.4079426531177
 20
229.1337284575531
 10
205.4073712006419
 20
229.1355988596993
 10
205.4071746561044
 20
229.1375437430261
  0
LINE
  5
E3B
330
1F
100
AcDbEntity
  8
SANINDUSA
100
AcDbLine
 10
205.4171609514519
 20
229.1275574476785
 30
0.0
 11
205.4111198733348
 21
229.1215163695614
 31
0.0
  0
LINE
  5
E3C
330
1F
100
AcDbEntity
  8
SANINDUSA
100
AcDbLine
 10
205.4011335779873
 20
229.131502664909
 30
0.0
 11
205.4071746561044
 21
229.1375437430261
 31
0.0
  0
LWPOLYLINE
  5
E3D
330
1F
100
AcDbEntity
  8
SANINDUSA
100
AcDbPolyline
 90
        9
 70
   128
 43
0.0
 10
205.9528587558975
 20
229.1342808373183
 10
205.95266221136
 20
229.1323359539915
 10
205.9520907588842
 20
229.1304655518454
 10
205.9511662827933
 20
229.1287412597319
 10
205.9499241867897
 20
229.1272291110786
 10
205.9484120381364
 20
229.125987015075
 10
205.9466877460228
 20
229.1250625389841
 10
205.9448173438767
 20
229.1244910865083
 10
205.94287246055
 20
229.1242945419708
  0
LINE
  5
E3E
330
1F
100
AcDbEntity
  8
SANINDUSA
100
AcDbLine
 10
205.9528587558975
 20
229.1342808373183
 30
0.0
 11
205.9556369283069
 21
229.131502664909
 31
0.0
  0
LINE
  5
E3F
330
1F
100
AcDbEntity
  8
SANINDUSA
100
AcDbLine
 10
205.9456506329593
 20
229.1215163695614
 30
0.0
 11
205.94287246055
 21
229.1242945419708
 31
0.0
  0
LINE
  5
E40
330
1F
100
AcDbEntity
  8
SANINDUSA
100
AcDbLine
 10
205.8306474203174
 20
229.4532026283805
 30
0.0
 11
205.94287246055
 21
229.4532415474716
 31
0.0
  0
LWPOLYLINE
  5
E41
330
1F
100
AcDbEntity
  8
SANINDUSA
100
AcDbPolyline
 90
       11
 70
   128
 43
0.0
 10
205.8157526785993
 20
229.4524387647346
 10
205.8159940918168
 20
229.4525587195817
 10
205.8165828286407
 20
229.4526753268
 10
205.8175050283003
 20
229.4527858410779
 10
205.8187389792304
 20
229.4528876605518
 10
205.8202556302318
 20
229.4529783880614
 10
205.82201927443
 20
229.4530558875877
 10
205.8239883899319
 20
229.4531183345409
 10
205.8261166173841
 20
229.4531642587174
 10
205.8283538514231
 20
229.4531925789137
 10
205.8306474203174
 20
229.4532026283805
  0
LINE
  5
E42
330
1F
100
AcDbEntity
  8
SANINDUSA
100
AcDbLine
 10
205.8144242773706
 20
229.449978483017
 30
0.0
 11
205.8157526785993
 21
229.4524387647346
 31
0.0
  0
LINE
  5
E43
330
1F
100
AcDbEntity
  8
SANINDUSA
100
AcDbLine
 10
205.7815744174237
 20
229.4499684163302
 30
0.0
 11
205.8144242773706
 21
229.449978483017
 31
0.0
  0
LINE
  5
E44
330
1F
100
AcDbEntity
  8
SANINDUSA
100
AcDbLine
 10
205.4497037998929
 20
229.4499684163302
 30
0.0
 11
205.7815744174237
 21
229.4499684163302
 31
0.0
  0
LINE
  5
E45
330
1F
100
AcDbEntity
  8
SANINDUSA
100
AcDbLine
 10
205.4171599312802
 20
229.4499796619356
 30
0.0
 11
205.4497037998929
 21
229.4499684163302
 31
0.0
  0
LINE
  5
E46
330
1F
100
AcDbEntity
  8
SANINDUSA
100
AcDbLine
 10
205.4071803287967
 20
229.4194632433523
 30
0.0
 11
205.4071736359327
 21
229.439993366588
 31
0.0
  0
LINE
  5
E47
330
1F
100
AcDbEntity
  8
SANINDUSA
100
AcDbLine
 10
205.4071803287967
 20
229.156518290884
 30
0.0
 11
205.4071803287967
 21
229.4194632433523
 31
0.0
  0
LINE
  5
E48
330
1F
100
AcDbEntity
  8
SANINDUSA
100
AcDbLine
 10
205.4071746561044
 20
229.1375437430261
 30
0.0
 11
205.4071803287967
 21
229.156518290884
 31
0.0
  0
LINE
  5
E49
330
1F
100
AcDbEntity
  8
SANINDUSA
100
AcDbLine
 10
205.9528587558975
 20
229.4432552521241
 30
0.0
 11
205.9528587558975
 21
229.1342808373183
 31
0.0
  0
LINE
  5
E4A
330
1F
100
AcDbEntity
  8
SANINDUSA
100
AcDbLine
 10
205.4511671790312
 20
229.1275698690312
 30
0.0
 11
205.4171609514519
 21
229.1275574476785
 31
0.0
  0
LINE
  5
E4B
330
1F
100
AcDbEntity
  8
SANINDUSA
100
AcDbLine
 10
205.7799509794746
 20
229.1275698690312
 30
0.0
 11
205.4511671790312
 21
229.1275698690312
 31
0.0
  0
LINE
  5
E4C
330
1F
100
AcDbEntity
  8
SANINDUSA
100
AcDbLine
 10
205.8144237171458
 20
229.1275586439966
 30
0.0
 11
205.7799509794746
 21
229.1275698690312
 31
0.0
  0
LINE
  5
E4D
330
1F
100
AcDbEntity
  8
SANINDUSA
100
AcDbLine
 10
205.8157526785993
 20
229.1250973247078
 30
0.0
 11
205.8144237171458
 21
229.1275586439966
 31
0.0
  0
LWPOLYLINE
  5
E4E
330
1F
100
AcDbEntity
  8
SANINDUSA
100
AcDbPolyline
 90
       11
 70
   128
 43
0.0
 10
205.8306474203174
 20
229.1243334610619
 10
205.8283538514231
 20
229.1243435105287
 10
205.8261166173841
 20
229.1243718307249
 10
205.8239883899319
 20
229.1244177549015
 10
205.82201927443
 20
229.1244802018546
 10
205.8202556302318
 20
229.1245577013809
 10
205.8187389792304
 20
229.1246484288906
 10
205.8175050283003
 20
229.1247502483645
 10
205.8165828286407
 20
229.1248607626424
 10
205.8159940918168
 20
229.1249773698607
 10
205.8157526785993
 20
229.1250973247078
  0
LINE
  5
E4F
330
1F
100
AcDbEntity
  8
SANINDUSA
100
AcDbLine
 10
205.94287246055
 20
229.1242945419708
 30
0.0
 11
205.8306474203174
 21
229.1243334610619
 31
0.0
  0
LINE
  5
E50
330
1F
100
AcDbEntity
  8
SANINDUSA
100
AcDbLine
 10
205.9810390699012
 20
229.4864194216121
 30
0.0
 11
205.9858234873925
 21
229.4912038391034
 31
0.0
  0
ARC
  5
E51
330
1F
100
AcDbEntity
  8
SANINDUSA
100
AcDbCircle
 10
205.9858217396212
 20
229.4862045311953
 30
0.0
 40
0.0049993082136062
100
AcDbArc
 50
0.0200310772034873
 51
89.97996924425141
  0
LINE
  5
E52
330
1F
100
AcDbEntity
  8
SANINDUSA
100
AcDbLine
 10
205.9908210475293
 20
229.4862062789666
 30
0.0
 11
205.986036630038
 21
229.4814218614753
 31
0.0
  0
LINE
  5
E53
330
1F
100
AcDbEntity
  8
SANINDUSA
100
AcDbLine
 10
205.3707338762562
 20
229.4814218614753
 30
0.0
 11
205.3659494587649
 21
229.4862062789666
 31
0.0
  0
ARC
  5
E54
330
1F
100
AcDbEntity
  8
SANINDUSA
100
AcDbCircle
 10
205.3709487666729
 20
229.4862045311953
 30
0.0
 40
0.0049993082135863
100
AcDbArc
 50
90.02003075558574
 51
179.979969040533
  0
LINE
  5
E55
330
1F
100
AcDbEntity
  8
SANINDUSA
100
AcDbLine
 10
205.3709470189016
 20
229.4912038391034
 30
0.0
 11
205.375731436393
 21
229.4864194216121
 31
0.0
  0
LINE
  5
E56
330
1F
100
AcDbEntity
  8
SANINDUSA
100
AcDbLine
 10
205.986036630038
 20
229.096114227967
 30
0.0
 11
205.9926961412315
 21
229.0894547167735
 31
0.0
  0
ARC
  5
E57
330
1F
100
AcDbEntity
  8
SANINDUSA
100
AcDbCircle
 10
205.9876968333234
 20
229.0894564645448
 30
0.0
 40
0.0049993082135699
100
AcDbArc
 50
270.0200307554229
 51
359.9799691618521
  0
LINE
  5
E58
330
1F
100
AcDbEntity
  8
SANINDUSA
100
AcDbLine
 10
205.9876985810948
 20
229.0844571566367
 30
0.0
 11
205.9810390699012
 21
229.0911166678303
 31
0.0
  0
LINE
  5
E59
330
1F
100
AcDbEntity
  8
SANINDUSA
100
AcDbLine
 10
205.375731436393
 20
229.0911166678303
 30
0.0
 11
205.3690719251994
 21
229.0844571566367
 31
0.0
  0
ARC
  5
E5A
330
1F
100
AcDbEntity
  8
SANINDUSA
100
AcDbCircle
 10
205.3690736729707
 20
229.0894564645448
 30
0.0
 40
0.0049993082135734
100
AcDbArc
 50
180.0200307554229
 51
269.9799692444142
  0
LINE
  5
E5B
330
1F
100
AcDbEntity
  8
SANINDUSA
100
AcDbLine
 10
205.3640743650626
 20
229.0894547167735
 30
0.0
 11
205.3707338762562
 21
229.096114227967
 31
0.0
  0
LINE
  5
E5C
330
1F
100
AcDbEntity
  8
SANINDUSA
100
AcDbLine
 10
205.9858234873925
 20
229.4912038391034
 30
0.0
 11
205.3709470189016
 21
229.4912038391034
 31
0.0
  0
LINE
  5
E5D
330
1F
100
AcDbEntity
  8
SANINDUSA
100
AcDbLine
 10
205.9908210475293
 20
229.1982682945938
 30
0.0
 11
205.9908210475293
 21
229.4862062789666
 31
0.0
  0
ARC
  5
E5E
330
1F
100
AcDbEntity
  8
SANINDUSA
100
AcDbCircle
 10
206.018973033508
 20
229.1971461348005
 30
0.0
 40
0.0281743421777443
100
AcDbArc
 50
177.7173546407165
 51
185.862645359178
  0
LINE
  5
E5F
330
1F
100
AcDbEntity
  8
SANINDUSA
100
AcDbLine
 10
205.9926023865464
 20
229.1942682945939
 30
0.0
 11
205.9909460537761
 21
229.1942682945939
 31
0.0
  0
ARC
  5
E60
330
1F
100
AcDbEntity
  8
SANINDUSA
100
AcDbCircle
 10
205.968627024548
 20
229.1920175620988
 30
0.0
 40
0.0240807761444228
100
AcDbArc
 50
358.216967947413
 51
5.363032052525814
  0
LINE
  5
E61
330
1F
100
AcDbEntity
  8
SANINDUSA
100
AcDbLine
 10
205.9926961412315
 20
229.0894547167735
 30
0.0
 11
205.9926961412315
 21
229.1912682945938
 31
0.0
  0
LINE
  5
E62
330
1F
100
AcDbEntity
  8
SANINDUSA
100
AcDbLine
 10
205.365824452518
 20
229.1942682945939
 30
0.0
 11
205.3641681197477
 21
229.1942682945939
 31
0.0
  0
ARC
  5
E63
330
1F
100
AcDbEntity
  8
SANINDUSA
100
AcDbCircle
 10
205.3338573031851
 20
229.197269271254
 30
0.0
 40
0.0321077015276349
100
AcDbArc
 50
354.6369679476363
 51
1.783032052261519
  0
LINE
  5
E64
330
1F
100
AcDbEntity
  8
SANINDUSA
100
AcDbLine
 10
205.3659494587649
 20
229.4862062789666
 30
0.0
 11
205.3659494587649
 21
229.1982682945938
 31
0.0
  0
LINE
  5
E65
330
1F
100
AcDbEntity
  8
SANINDUSA
100
AcDbLine
 10
205.3640743650626
 20
229.1912682945938
 30
0.0
 11
205.3640743650626
 21
229.0894547167735
 31
0.0
  0
ARC
  5
E66
330
1F
100
AcDbEntity
  8
SANINDUSA
100
AcDbCircle
 10
205.3881434817474
 20
229.1920175620988
 30
0.0
 40
0.0240807761457366
100
AcDbArc
 50
174.6369679476363
 51
181.7830320524243
  0
LINE
  5
E67
330
1F
100
AcDbEntity
  8
SANINDUSA
100
AcDbLine
 10
205.3690719251994
 20
229.0844571566367
 30
0.0
 11
205.9876985810948
 21
229.0844571566367
 31
0.0
  0
LWPOLYLINE
  5
E72
330
1F
100
AcDbEntity
  8
SANINDUSA
100
AcDbPolyline
 90
        9
 70
   128
 43
0.0
 10
205.8257486774047
 20
229.4424524693871
 10
205.8255540835869
 20
229.4443988886574
 10
205.824983534613
 20
229.4462706485945
 10
205.8240589151849
 20
229.4479959535935
 10
205.8228156911816
 20
229.4495086256616
 10
205.8213015492843
 20
229.4507506428248
 10
205.8195745678453
 20
229.4516743646931
 10
205.8177009891613
 20
229.4522443598157
 10
205.8157526785993
 20
229.4524387647346
  0
LWPOLYLINE
  5
E74
330
1F
100
AcDbEntity
  8
SANINDUSA
100
AcDbPolyline
 90
        9
 70
   128
 43
0.0
 10
205.8157526785993
 20
229.1250973247078
 10
205.8177009891613
 20
229.1252917296267
 10
205.8195745678453
 20
229.1258617247493
 10
205.8213015492843
 20
229.1267854466176
 10
205.8228156911816
 20
229.1280274637808
 10
205.8240589151849
 20
229.1295401358489
 10
205.824983534613
 20
229.1312654408479
 10
205.8255540835869
 20
229.133137200785
 10
205.8257486774047
 20
229.1350836200553
  0
LINE
  5
E76
330
1F
100
AcDbEntity
  8
SANINDUSA
100
AcDbLine
 10
205.8257486774047
 20
229.1350836200553
 30
0.0
 11
205.8257486774047
 21
229.4424524693871
 31
0.0
  0
LINE
  5
E77
330
1F
100
AcDbEntity
  8
SANINDUSA
100
AcDbLine
 10
205.8257486774047
 20
229.4424524693871
 30
0.0
 11
205.8244202761761
 21
229.4399921876694
 31
0.0
  0
LWPOLYLINE
  5
E78
330
1F
100
AcDbEntity
  8
SANINDUSA
100
AcDbPolyline
 90
        9
 70
   128
 43
0.0
 10
205.8244202761761
 20
229.4399921876694
 10
205.8242256823583
 20
229.4419386069397
 10
205.8236551333843
 20
229.4438103668768
 10
205.8227305139563
 20
229.4455356718759
 10
205.821487289953
 20
229.4470483439439
 10
205.8199731480557
 20
229.4482903611071
 10
205.8182461666166
 20
229.4492140829754
 10
205.8163725879326
 20
229.449784078098
 10
205.8144242773706
 20
229.449978483017
  0
LINE
  5
E79
330
1F
100
AcDbEntity
  8
SANINDUSA
100
AcDbLine
 10
205.8244167941996
 20
229.4206072172059
 30
0.0
 11
205.8244167941996
 21
229.1553631381328
 31
0.0
  0
LINE
  5
E7A
330
1F
100
AcDbEntity
  8
SANINDUSA
100
AcDbLine
 10
205.8244202761761
 20
229.4399921876694
 30
0.0
 11
205.8244167941996
 21
229.4206072172059
 31
0.0
  0
LINE
  5
E7B
330
1F
100
AcDbEntity
  8
SANINDUSA
100
AcDbLine
 10
205.8244197159513
 20
229.1375449393441
 30
0.0
 11
205.8257486774047
 21
229.1350836200553
 31
0.0
  0
LINE
  5
E7C
330
1F
100
AcDbEntity
  8
SANINDUSA
100
AcDbLine
 10
205.8244167941996
 20
229.1553631381328
 30
0.0
 11
205.8244197159513
 21
229.1375449393441
 31
0.0
  0
LWPOLYLINE
  5
E7D
330
1F
100
AcDbEntity
  8
SANINDUSA
100
AcDbPolyline
 90
        9
 70
   128
 43
0.0
 10
205.8144237171458
 20
229.1275586439966
 10
205.8163720277078
 20
229.1277530489156
 10
205.8182456063918
 20
229.1283230440381
 10
205.8199725878308
 20
229.1292467659065
 10
205.8214867297282
 20
229.1304887830697
 10
205.8227299537315
 20
229.1320014551377
 10
205.8236545731595
 20
229.1337267601368
 10
205.8242251221335
 20
229.1355985200739
 10
205.8244197159513
 20
229.1375449393441
  0
ARC
  5
E9B
330
1F
100
AcDbEntity
  8
SANINDUSA
100
AcDbCircle
 10
205.6062498159362
 20
229.2886524799289
 30
0.0
 40
0.0396108268064
100
AcDbArc
 50
113.2425465085826
 51
168.6815240249396
  0
ARC
  5
E9E
330
1F
100
AcDbEntity
  8
SANINDUSA
100
AcDbCircle
 10
205.6062473791143
 20
229.2888934891267
 30
0.0
 40
0.0396093956090608
100
AcDbArc
 50
191.7773760197314
 51
246.870514323743
  0
ARC
  5
EA1
330
1F
100
AcDbEntity
  8
SANINDUSA
100
AcDbCircle
 10
205.6054415287726
 20
229.288692369259
 30
0.0
 40
0.0395991092007262
100
AcDbArc
 50
9.479978827387364
 51
62.64348109466427
  0
ARC
  5
EA3
330
1F
100
AcDbEntity
  8
SANINDUSA
100
AcDbCircle
 10
205.6054444404586
 20
229.2888530469605
 30
0.0
 40
0.0395968061398209
100
AcDbArc
 50
297.255082039139
 51
350.0634944468218
  0
ARC
  5
EA6
330
1F
100
AcDbEntity
  8
SANINDUSA
100
AcDbCircle
 10
205.6050207187845
 20
229.2887680434815
 30
0.0
 40
0.0383831661985832
100
AcDbArc
 50
168.4905890874454
 51
191.9678016165031
  0
ARC
  5
EA7
330
1F
100
AcDbEntity
  8
SANINDUSA
100
AcDbCircle
 10
205.606661372651
 20
229.2887680441095
 30
0.0
 40
0.0383836682931008
100
AcDbArc
 50
349.8750211659495
 51
9.66846473462321
  0
ARC
  5
EA8
330
1F
100
AcDbEntity
  8
SANINDUSA
100
AcDbCircle
 10
205.6058850749888
 20
229.2898317111467
 30
0.0
 40
0.038383584202535
100
AcDbArc
 50
62.45000213937643
 51
113.4369191046749
  0
ARC
  5
EA9
330
1F
100
AcDbEntity
  8
SANINDUSA
100
AcDbCircle
 10
205.605885078728
 20
229.2877149326052
 30
0.0
 40
0.0383834760883003
100
AcDbArc
 50
246.6768024977672
 51
297.4483680529956
  0
CIRCLE
  5
EBB
330
1F
100
AcDbEntity
  8
SANINDUSA
100
AcDbCircle
 10
205.6058850032744
 20
229.2887680447212
 30
0.0
 40
0.0235
  0
LINE
  5
EBC
330
1F
100
AcDbEntity
  8
SANINDUSA
100
AcDbLine
 10
205.9908220234746
 20
229.4862062789666
 30
0.0
 11
205.9908210475293
 21
229.4862062789666
 31
0.0
  0
LINE
  5
EBD
330
1F
100
AcDbEntity
  8
SANINDUSA
100
AcDbLine
 10
205.9858234873925
 20
229.4912048150487
 30
0.0
 11
205.9858234873925
 21
229.4912038391034
 31
0.0
  0
LINE
  5
EBE
330
1F
100
AcDbEntity
  8
SANINDUSA
100
AcDbLine
 10
205.3659494587649
 20
229.4862062789666
 30
0.0
 11
205.3659484828196
 21
229.4862062789666
 31
0.0
  0
LINE
  5
EBF
330
1F
100
AcDbEntity
  8
SANINDUSA
100
AcDbLine
 10
205.3709470189016
 20
229.4912038391034
 30
0.0
 11
205.3709470189016
 21
229.4912048150487
 31
0.0
  0
LINE
  5
EC0
330
1F
100
AcDbEntity
  8
SANINDUSA
100
AcDbLine
 10
205.9908220234746
 20
229.1982682945938
 30
0.0
 11
205.9908210475293
 21
229.1982682945938
 31
0.0
  0
LINE
  5
EC1
330
1F
100
AcDbEntity
  8
SANINDUSA
100
AcDbLine
 10
205.3659494587649
 20
229.1982682945938
 30
0.0
 11
205.3659484828196
 21
229.1982682945938
 31
0.0
  0
LWPOLYLINE
  5
EC2
330
1F
100
AcDbEntity
  8
SANINDUSA
100
AcDbPolyline
 90
        3
 70
   128
 43
0.0
 10
205.365824452518
 20
229.1942682945939
 10
205.3658628632047
 20
229.1946584752379
 10
205.3658648762123
 20
229.1946684671157
  0
LINE
  5
EC3
330
1F
100
AcDbEntity
  8
SANINDUSA
100
AcDbLine
 10
205.9909089963015
 20
229.1946516060443
 30
0.0
 11
205.9909460537761
 21
229.1942682945939
 31
0.0
  0
LWPOLYLINE
  5
EC4
330
1F
100
AcDbEntity
  8
SANINDUSA
100
AcDbPolyline
 90
        9
 70
   128
 43
0.0
 10
205.3641681197477
 20
229.1942682945939
 10
205.3642065304344
 20
229.1946584752379
 10
205.3643202863933
 20
229.1950336614586
 10
205.3645050160467
 20
229.1953794350599
 10
205.3647536203376
 20
229.1956825081562
 10
205.3650565455426
 20
229.1959312338184
 10
205.3654021504158
 20
229.1961160536589
 10
205.3657771535559
 20
229.1962298651547
 10
205.3659324604081
 20
229.1962544642526
  0
LWPOLYLINE
  5
EC5
330
1F
100
AcDbEntity
  8
SANINDUSA
100
AcDbPolyline
 90
        9
 70
   128
 43
0.0
 10
205.9908380458841
 20
229.1962544642529
 10
205.9909933527383
 20
229.1962298651547
 10
205.9913683558783
 20
229.1961160536589
 10
205.9917139607516
 20
229.1959312338184
 10
205.9920168859565
 20
229.1956825081562
 10
205.9922654902475
 20
229.1953794350599
 10
205.9924502199008
 20
229.1950336614586
 10
205.9925639758597
 20
229.1946584752379
 10
205.9926023865464
 20
229.1942682945939
  0
LINE
  5
EC6
330
1F
100
AcDbEntity
  8
SANINDUSA
100
AcDbLine
 10
205.9926971171768
 20
229.1912682945938
 30
0.0
 11
205.9926961412315
 21
229.1912682945938
 31
0.0
  0
LINE
  5
EC7
330
1F
100
AcDbEntity
  8
SANINDUSA
100
AcDbLine
 10
205.3640743650626
 20
229.1912682945938
 30
0.0
 11
205.3640733891173
 21
229.1912682945938
 31
0.0
  0
LINE
  5
EC8
330
1F
100
AcDbEntity
  8
SANINDUSA
100
AcDbLine
 10
205.3690719251994
 20
229.0844571566367
 30
0.0
 11
205.3690719251994
 21
229.0844561806915
 31
0.0
  0
LINE
  5
EC9
330
1F
100
AcDbEntity
  8
SANINDUSA
100
AcDbLine
 10
205.3640743650626
 20
229.0894547167735
 30
0.0
 11
205.3640733891173
 21
229.0894547167735
 31
0.0
  0
LINE
  5
ECA
330
1F
100
AcDbEntity
  8
SANINDUSA
100
AcDbLine
 10
205.9876985810948
 20
229.0844561806915
 30
0.0
 11
205.9876985810948
 21
229.0844571566367
 31
0.0
  0
LINE
  5
ECB
330
1F
100
AcDbEntity
  8
SANINDUSA
100
AcDbLine
 10
205.9926971171768
 20
229.0894547167735
 30
0.0
 11
205.9926961412315
 21
229.0894547167735
 31
0.0
  0
ARC
  5
ED5
330
1F
100
AcDbEntity
  8
SANINDUSA
100
AcDbCircle
 10
207.4750788221376
 20
229.1877648659258
 30
0.0
 40
0.0050000000001593
100
AcDbArc
 50
180.0
 51
269.9999999982087
  0
LINE
  5
ED9
330
1F
100
AcDbEntity
  8
SANINDUSA
100
AcDbLine
 10
207.5768923999578
 20
229.1827648659256
 30
0.0
 11
207.4750788221374
 21
229.1827648659256
 31
0.0
  0
ARC
  5
EDB
330
1F
100
AcDbEntity
  8
SANINDUSA
100
AcDbCircle
 10
207.5798909360398
 20
229.1847648659256
 30
0.0
 40
0.002
100
AcDbArc
 50
270.0
 51
1.790000000091045
  0
LINE
  5
EDC
330
1F
100
AcDbEntity
  8
SANINDUSA
100
AcDbLine
 10
207.5798909360398
 20
229.1827648659256
 30
0.0
 11
207.5768923999578
 21
229.1827648659256
 31
0.0
  0
LINE
  5
EE4
330
1F
100
AcDbEntity
  8
SANINDUSA
100
AcDbLine
 10
207.575230448901
 20
229.3979210474846
 30
0.0
 11
207.5818899600945
 21
229.1848273385492
 31
0.0
  0
LINE
  5
EE5
330
1F
100
AcDbEntity
  8
SANINDUSA
100
AcDbLine
 10
207.4700788221374
 20
229.1877648659256
 30
0.0
 11
207.4700788221374
 21
229.2407648659256
 31
0.0
  0
ARC
  5
EE7
330
1F
100
AcDbEntity
  8
SANINDUSA
100
AcDbCircle
 10
207.4680788221376
 20
229.2407648659257
 30
0.0
 40
0.0019999999999025
100
AcDbArc
 50
0.0
 51
90.00000000358257
  0
LINE
  5
EEB
330
1F
100
AcDbEntity
  8
SANINDUSA
100
AcDbLine
 10
207.1801408377647
 20
229.2427648659256
 30
0.0
 11
207.1771423016826
 21
229.2427648659256
 31
0.0
  0
ARC
  5
EEC
330
1F
100
AcDbEntity
  8
SANINDUSA
100
AcDbCircle
 10
207.1771423016826
 20
229.2447648659256
 30
0.0
 40
0.002
100
AcDbArc
 50
178.2099999999089
 51
270.0
  0
LINE
  5
EED
330
1F
100
AcDbEntity
  8
SANINDUSA
100
AcDbLine
 10
207.4680788221374
 20
229.2427648659256
 30
0.0
 11
207.1801408377647
 21
229.2427648659256
 31
0.0
  0
LINE
  5
EEF
330
1F
100
AcDbEntity
  8
SANINDUSA
100
AcDbLine
 10
207.1751432776279
 20
229.2448273385492
 30
0.0
 11
207.1799276951192
 21
229.3979210474846
 31
0.0
  0
ARC
  5
EF0
330
1F
100
AcDbEntity
  8
SANINDUSA
100
AcDbCircle
 10
207.184925255256
 20
229.3977648659256
 30
0.0
 40
0.005
100
AcDbArc
 50
90.0
 51
178.2099999999089
  0
LINE
  5
EF2
330
1F
100
AcDbEntity
  8
SANINDUSA
100
AcDbLine
 10
207.184925255256
 20
229.4027648659256
 30
0.0
 11
207.5702328887642
 21
229.4027648659256
 31
0.0
  0
ARC
  5
EF4
330
1F
100
AcDbEntity
  8
SANINDUSA
100
AcDbCircle
 10
207.5702328887642
 20
229.3977648659256
 30
0.0
 40
0.005
100
AcDbArc
 50
1.790000000091045
 51
90.0
  0
LINE
  5
F14
330
1F
100
AcDbEntity
  8
SANINDUSA
100
AcDbLine
 10
207.9399267466715
 20
229.2608267026311
 30
0.0
 11
207.947931893024
 21
229.267543817983
 31
0.0
  0
LINE
  5
F16
330
1F
100
AcDbEntity
  8
SANINDUSA
100
AcDbLine
 10
207.881336040486
 20
229.2675550920669
 30
0.0
 11
207.8893546227684
 21
229.2608267026311
 31
0.0
  0
LINE
  5
F19
330
1F
100
AcDbEntity
  8
SANINDUSA
100
AcDbLine
 10
207.9497563136175
 20
229.2697572680064
 30
0.0
 11
207.9540772721125
 21
229.2698793825274
 31
0.0
  0
ARC
  5
F1A
330
1F
100
AcDbEntity
  8
SANINDUSA
100
AcDbCircle
 10
207.9543597691208
 20
229.2598833735517
 30
0.0
 40
0.0100000000000002
100
AcDbArc
 50
91.61880399183942
 51
129.9999999999766
  0
ARC
  5
F1B
330
1F
100
AcDbEntity
  8
SANINDUSA
100
AcDbCircle
 10
207.9676947836871
 20
229.240252248894
 30
0.0
 40
0.02
100
AcDbArc
 50
91.61880399183942
 51
162.7808062021787
  0
LINE
  5
F31
330
1F
100
AcDbEntity
  8
SANINDUSA
100
AcDbLine
 10
208.0121404348473
 20
229.1827648659256
 30
0.0
 11
208.1169525487497
 21
229.1827648659256
 31
0.0
  0
ARC
  5
F32
330
1F
100
AcDbEntity
  8
SANINDUSA
100
AcDbCircle
 10
208.0121404348473
 20
229.1877648659256
 30
0.0
 40
0.005
100
AcDbArc
 50
180.0
 51
270.0
  0
LINE
  5
F33
330
1F
100
AcDbEntity
  8
SANINDUSA
100
AcDbLine
 10
208.0071404348473
 20
229.2427648659256
 30
0.0
 11
208.0071404348473
 21
229.1877648659256
 31
0.0
  0
ARC
  5
F34
330
1F
100
AcDbEntity
  8
SANINDUSA
100
AcDbCircle
 10
208.0021404348473
 20
229.2427648659256
 30
0.0
 40
0.005
100
AcDbArc
 50
0.0
 51
90.0
  0
LINE
  5
F35
330
1F
100
AcDbEntity
  8
SANINDUSA
100
AcDbLine
 10
207.9911404348473
 20
229.2477648659256
 30
0.0
 11
208.0021404348473
 21
229.2477648659256
 31
0.0
  0
ARC
  5
F36
330
1F
100
AcDbEntity
  8
SANINDUSA
100
AcDbCircle
 10
207.9911404348473
 20
229.2457648659256
 30
0.0
 40
0.002
100
AcDbArc
 50
90.0
 51
180.0
  0
LINE
  5
F37
330
1F
100
AcDbEntity
  8
SANINDUSA
100
AcDbLine
 10
207.9891404348473
 20
229.2447648659256
 30
0.0
 11
207.9891404348473
 21
229.2457648659256
 31
0.0
  0
ARC
  5
F38
330
1F
100
AcDbEntity
  8
SANINDUSA
100
AcDbCircle
 10
207.9871404348473
 20
229.2447648659256
 30
0.0
 40
0.0020000000000002
100
AcDbArc
 50
270.0
 51
0.0
  0
LINE
  5
F39
330
1F
100
AcDbEntity
  8
SANINDUSA
100
AcDbLine
 10
207.9871404348473
 20
229.2427648659256
 30
0.0
 11
207.9840383639807
 21
229.2427648659256
 31
0.0
  0
ARC
  5
F3A
330
1F
100
AcDbEntity
  8
SANINDUSA
100
AcDbCircle
 10
207.9840383639807
 20
229.2447648659256
 30
0.0
 40
0.0020000000000002
100
AcDbArc
 50
183.0000000000383
 51
270.0
  0
LINE
  5
F3B
330
1F
100
AcDbEntity
  8
SANINDUSA
100
AcDbLine
 10
207.9814589801561
 20
229.2557677960353
 30
0.0
 11
207.9820411049112
 21
229.2446601940131
 31
0.0
  0
ARC
  5
F3C
330
1F
100
AcDbEntity
  8
SANINDUSA
100
AcDbCircle
 10
207.9764658324823
 20
229.2555061162541
 30
0.0
 40
0.005
100
AcDbArc
 50
3.000000000038289
 51
91.61880399183942
  0
LINE
  5
F3D
330
1F
100
AcDbEntity
  8
SANINDUSA
100
AcDbLine
 10
207.9763245839782
 20
229.2605041207419
 30
0.0
 11
207.9671297896706
 21
229.2602442668453
 31
0.0
  0
LINE
  5
F3E
330
1F
100
AcDbEntity
  8
SANINDUSA
100
AcDbLine
 10
207.93914068472
 20
229.2447648659256
 30
0.0
 11
207.9466808402352
 21
229.2447648659256
 31
0.0
  0
ARC
  5
F3F
330
1F
100
AcDbEntity
  8
SANINDUSA
100
AcDbCircle
 10
207.93914068472
 20
229.2457648659256
 30
0.0
 40
0.0010000000000002
100
AcDbArc
 50
180.0
 51
270.0
  0
LINE
  5
F40
330
1F
100
AcDbEntity
  8
SANINDUSA
100
AcDbLine
 10
207.93814068472
 20
229.2457648659256
 30
0.0
 11
207.93814068472
 21
229.2569964804155
 31
0.0
  0
ARC
  5
F41
330
1F
100
AcDbEntity
  8
SANINDUSA
100
AcDbCircle
 10
207.9431406847199
 20
229.2569964804155
 30
0.0
 40
0.005
100
AcDbArc
 50
129.9999999999766
 51
180.0
  0
LINE
  5
F42
330
1F
100
AcDbEntity
  8
SANINDUSA
100
AcDbLine
 10
208.0661350620707
 20
229.2730462454717
 30
0.0
 11
207.9540772721125
 21
229.2698793825274
 31
0.0
  0
ARC
  5
F43
330
1F
100
AcDbEntity
  8
SANINDUSA
100
AcDbCircle
 10
208.0658525650624
 20
229.2830422544473
 30
0.0
 40
0.01
100
AcDbArc
 50
271.6188039918394
 51
356.9999999999617
  0
LINE
  5
F44
330
1F
100
AcDbEntity
  8
SANINDUSA
100
AcDbLine
 10
208.0818923598798
 20
229.3980265457068
 30
0.0
 11
208.07583886041
 21
229.2825188948849
 31
0.0
  0
ARC
  5
F45
330
1F
100
AcDbEntity
  8
SANINDUSA
100
AcDbCircle
 10
208.0868855075535
 20
229.3977648659256
 30
0.0
 40
0.005
100
AcDbArc
 50
90.0
 51
176.9999999999617
  0
LINE
  5
F46
330
1F
100
AcDbEntity
  8
SANINDUSA
100
AcDbLine
 10
208.1072945014741
 20
229.4027648659256
 30
0.0
 11
208.0868855075535
 21
229.4027648659256
 31
0.0
  0
ARC
  5
F47
330
1F
100
AcDbEntity
  8
SANINDUSA
100
AcDbCircle
 10
208.1072945014741
 20
229.3977648659256
 30
0.0
 40
0.005
100
AcDbArc
 50
1.789999999928281
 51
90.0
  0
LINE
  5
F48
330
1F
100
AcDbEntity
  8
SANINDUSA
100
AcDbLine
 10
208.1189515728044
 20
229.1848273385492
 30
0.0
 11
208.1122920616109
 21
229.3979210474846
 31
0.0
  0
ARC
  5
F49
330
1F
100
AcDbEntity
  8
SANINDUSA
100
AcDbCircle
 10
208.1169525487497
 20
229.1847648659256
 30
0.0
 40
0.0020000000000002
100
AcDbArc
 50
270.0
 51
1.789999999928281
  0
ARC
  5
F4A
330
1F
100
AcDbEntity
  8
SANINDUSA
100
AcDbCircle
 10
207.9466808402352
 20
229.2467648659256
 30
0.0
 40
0.002
100
AcDbArc
 50
270.0
 51
342.7808062021787
  0
LINE
  5
F4B
330
1F
100
AcDbEntity
  8
SANINDUSA
100
AcDbLine
 10
207.93914068472
 20
229.2447648659256
 30
0.0
 11
207.89014068472
 21
229.2447648659256
 31
0.0
  0
ARC
  5
F4C
330
1F
100
AcDbEntity
  8
SANINDUSA
100
AcDbCircle
 10
207.89014068472
 20
229.2457648659256
 30
0.0
 40
0.001
100
AcDbArc
 50
270.0
 51
0.0
  0
LINE
  5
F54
330
1F
100
AcDbEntity
  8
SANINDUSA
100
AcDbLine
 10
207.875193419719
 20
229.2698905782776
 30
0.0
 11
207.7631413531285
 21
229.2730882244367
 31
0.0
  0
ARC
  5
F55
330
1F
100
AcDbEntity
  8
SANINDUSA
100
AcDbCircle
 10
207.8749081643891
 20
229.2598946476357
 30
0.0
 40
0.01
100
AcDbArc
 50
50.00000000002334
 51
88.36538561734323
  0
ARC
  5
F56
330
1F
100
AcDbEntity
  8
SANINDUSA
100
AcDbCircle
 10
207.88614068472
 20
229.2569964804155
 30
0.0
 40
0.005
100
AcDbArc
 50
0.0
 51
50.00000000002334
  0
LINE
  5
F57
330
1F
100
AcDbEntity
  8
SANINDUSA
100
AcDbLine
 10
207.89114068472
 20
229.2569964804155
 30
0.0
 11
207.89114068472
 21
229.2457648659256
 31
0.0
  0
ARC
  5
F58
330
1F
100
AcDbEntity
  8
SANINDUSA
100
AcDbCircle
 10
207.8826016659463
 20
229.2467648659256
 30
0.0
 40
0.002
100
AcDbArc
 50
197.1796293778514
 51
270.0
  0
ARC
  5
F59
330
1F
100
AcDbEntity
  8
SANINDUSA
100
AcDbCircle
 10
207.8615832303513
 20
229.2402667611912
 30
0.0
 40
0.02
100
AcDbArc
 50
17.17962937785141
 51
88.36538561734323
  0
LINE
  5
F5A
330
1F
100
AcDbEntity
  8
SANINDUSA
100
AcDbLine
 10
207.8621537410112
 20
229.260258622475
 30
0.0
 11
207.7492500225003
 21
229.2634805723491
 31
0.0
  0
ARC
  5
F5B
330
1F
100
AcDbEntity
  8
SANINDUSA
100
AcDbCircle
 10
207.7491073948354
 20
229.2584826070282
 30
0.0
 40
0.005
100
AcDbArc
 50
88.36538561734323
 51
169.9999999999557
  0
LINE
  5
F5C
330
1F
100
AcDbEntity
  8
SANINDUSA
100
AcDbLine
 10
207.742431851091
 20
229.2494175695703
 30
0.0
 11
207.7441833560703
 21
229.2593508479165
 31
0.0
  0
ARC
  5
F5D
330
1F
100
AcDbEntity
  8
SANINDUSA
100
AcDbCircle
 10
207.7404622355849
 20
229.2497648659256
 30
0.0
 40
0.0020000000000002
100
AcDbArc
 50
270.0
 51
349.9999999999557
  0
LINE
  5
F5E
330
1F
100
AcDbEntity
  8
SANINDUSA
100
AcDbLine
 10
207.724705151122
 20
229.2477648659256
 30
0.0
 11
207.7404622355849
 21
229.2477648659256
 31
0.0
  0
ARC
  5
F5F
330
1F
100
AcDbEntity
  8
SANINDUSA
100
AcDbCircle
 10
207.724705151122
 20
229.2457648659256
 30
0.0
 40
0.002
100
AcDbArc
 50
90.0
 51
169.9999999999557
  0
ARC
  5
F60
330
1F
100
AcDbEntity
  8
SANINDUSA
100
AcDbCircle
 10
207.7219868679658
 20
229.3977648659256
 30
0.0
 40
0.0050000000000001
100
AcDbArc
 50
90.0
 51
178.2100000000717
  0
LINE
  5
F61
330
1F
100
AcDbEntity
  8
SANINDUSA
100
AcDbLine
 10
207.7423958618864
 20
229.4027648659256
 30
0.0
 11
207.7219868679658
 21
229.4027648659256
 31
0.0
  0
ARC
  5
F62
330
1F
100
AcDbEntity
  8
SANINDUSA
100
AcDbCircle
 10
207.7423958618864
 20
229.3977648659256
 30
0.0
 40
0.005
100
AcDbArc
 50
3.000000000038289
 51
90.0
  0
LINE
  5
F63
330
1F
100
AcDbEntity
  8
SANINDUSA
100
AcDbLine
 10
207.7534403131109
 20
229.2825607955161
 30
0.0
 11
207.7473890095602
 21
229.3980265457068
 31
0.0
  0
ARC
  5
F64
330
1F
100
AcDbEntity
  8
SANINDUSA
100
AcDbCircle
 10
207.7634266084585
 20
229.2830841550786
 30
0.0
 40
0.0100000000000001
100
AcDbArc
 50
183.0000000000383
 51
268.3653856173432
  0
LINE
  5
F65
330
1F
100
AcDbEntity
  8
SANINDUSA
100
AcDbLine
 10
207.8826016659463
 20
229.2447648659256
 30
0.0
 11
207.89014068472
 21
229.2447648659256
 31
0.0
  0
ARC
  5
F66
330
1F
100
AcDbEntity
  8
SANINDUSA
100
AcDbCircle
 10
207.7204671176938
 20
229.2447648659256
 30
0.0
 40
0.0020000000000002
100
AcDbArc
 50
270.0
 51
349.9999999999557
  0
LINE
  5
F67
330
1F
100
AcDbEntity
  8
SANINDUSA
100
AcDbLine
 10
207.7204671176938
 20
229.2427648659256
 30
0.0
 11
207.7142039143925
 21
229.2427648659256
 31
0.0
  0
LINE
  5
F68
330
1F
100
AcDbEntity
  8
SANINDUSA
100
AcDbLine
 10
207.722735535616
 20
229.2461121622809
 30
0.0
 11
207.7224367331998
 21
229.2444175695703
 31
0.0
  0
ARC
  5
F69
330
1F
100
AcDbEntity
  8
SANINDUSA
100
AcDbCircle
 10
207.7142039143925
 20
229.2447648659256
 30
0.0
 40
0.0020000000000002
100
AcDbArc
 50
178.2100000000717
 51
270.0
  0
LINE
  5
F6A
330
1F
100
AcDbEntity
  8
SANINDUSA
100
AcDbLine
 10
207.7169893078291
 20
229.3979210474846
 30
0.0
 11
207.7122048903378
 21
229.2448273385492
 31
0.0
  0
LINE
  5
F6E
330
1F
100
AcDbEntity
  8
SANINDUSA
100
AcDbLine
 10
207.875193419719
 20
229.2698905782776
 30
0.0
 11
207.8795458423195
 21
229.2697663725593
 31
0.0
  0
ARC
  5
F71
330
1F
100
AcDbEntity
  8
SANINDUSA
100
AcDbCircle
 10
207.9293467089161
 20
230.243649518609
 30
0.0
 40
0.9741060864956384
100
AcDbArc
 50
269.5318950544711
 51
271.2005569028018
  0
ARC
  5
F72
330
1F
100
AcDbEntity
  8
SANINDUSA
100
AcDbCircle
 10
207.9002192624148
 20
230.2304256962703
 30
0.0
 40
0.960881744301124
100
AcDbArc
 50
268.7671832364221
 51
270.4755418899196
  0
ARC
  5
F7A
330
1F
100
AcDbEntity
  8
SANINDUSA
100
AcDbCircle
 10
207.9146397121918
 20
227.4601979628484
 30
0.0
 40
1.809390564750774
100
AcDbArc
 50
89.78629769504106
 51
90.20410044385679
  0
LINE
  5
F9A
330
1F
100
AcDbEntity
  8
SANINDUSA
100
AcDbLine
 10
207.9840383639807
 20
229.2427648659256
 30
0.0
 11
207.9770924611664
 21
229.2427648659256
 31
0.0
  0
LINE
  5
F9C
330
1F
100
AcDbEntity
  8
SANINDUSA
100
AcDbLine
 10
207.7273607719648
 20
229.2427648659256
 30
0.0
 11
207.7204671176938
 21
229.2427648659256
 31
0.0
  0
LINE
  5
FA6
330
1F
100
AcDbEntity
  8
SANINDUSA
100
AcDbLine
 10
207.9770924611664
 20
229.2427648659256
 30
0.0
 11
207.7273607719648
 21
229.2427648659256
 31
0.0
  0
LWPOLYLINE
  5
FC5
330
1F
100
AcDbEntity
  8
SANINDUSA
100
AcDbPolyline
 90
        9
 70
   128
 43
0.0
 10
207.7601923964082
 20
229.3347968162184
 10
207.7583057254663
 20
229.3349763969511
 10
207.7564868195917
 20
229.3355086976633
 10
207.7548010098795
 20
229.3363745992853
 10
207.7533088469038
 20
229.3375430005368
 10
207.7520639258741
 20
229.3389719350168
 10
207.7511109616134
 20
229.340610078544
 10
207.7504841825002
 20
229.342398592609
 10
207.7502061010607
 20
229.3442732377235
  0
LWPOLYLINE
  5
FC7
330
1F
100
AcDbEntity
  8
SANINDUSA
100
AcDbPolyline
 90
        9
 70
   128
 43
0.0
 10
208.0690889730317
 20
229.3347968162184
 10
208.0709756439736
 20
229.3349763969511
 10
208.0727945498482
 20
229.3355086976633
 10
208.0744803595604
 20
229.3363745992853
 10
208.0759725225361
 20
229.3375430005368
 10
208.0772174435659
 20
229.3389719350168
 10
208.0781704078266
 20
229.340610078544
 10
208.0787971869397
 20
229.342398592609
 10
208.0790752683792
 20
229.3442732377235
  0
LINE
  5
FCD
330
1F
100
AcDbEntity
  8
SANINDUSA
100
AcDbLine
 10
207.7601923964082
 20
229.3347968162184
 30
0.0
 11
208.0690889730317
 21
229.3347968162184
 31
0.0
  0
LINE
  5
FF5
330
1F
100
AcDbEntity
  8
SANINDUSA
100
AcDbLine
 10
207.7423958618864
 20
229.4027648659256
 30
0.0
 11
207.7573753049077
 21
229.4027648659256
 31
0.0
  0
LINE
  5
FF7
330
1F
100
AcDbEntity
  8
SANINDUSA
100
AcDbLine
 10
208.0719060645322
 20
229.4027648659256
 30
0.0
 11
208.0868855075535
 21
229.4027648659256
 31
0.0
  0
LINE
  5
FF9
330
1F
100
AcDbEntity
  8
SANINDUSA
100
AcDbLine
 10
207.7573753049077
 20
229.4027648659256
 30
0.0
 11
208.0719060645322
 21
229.4027648659256
 31
0.0
  0
LINE
  5
1002
330
1F
100
AcDbEntity
  8
SANINDUSA
100
AcDbLine
 10
207.9941404348473
 20
229.2427648659256
 30
0.0
 11
207.9871404348473
 21
229.2427648659256
 31
0.0
  0
ARC
  5
1009
330
1F
100
AcDbEntity
  8
SANINDUSA
100
AcDbCircle
 10
208.0051404348473
 20
229.2407648659256
 30
0.0
 40
0.0020000000000001
100
AcDbArc
 50
0.0
 51
90.0
  0
LINE
  5
100C
330
1F
100
AcDbEntity
  8
SANINDUSA
100
AcDbLine
 10
208.0051404348473
 20
229.2427648659256
 30
0.0
 11
207.9941404348473
 21
229.2427648659256
 31
0.0
  0
LINE
  5
100D
330
1F
100
AcDbEntity
  8
SANINDUSA
100
AcDbLine
 10
207.7277720124827
 20
229.3907961022374
 30
0.0
 11
207.7236780578995
 21
229.2597961022374
 31
0.0
  0
LINE
  5
1010
330
1F
100
AcDbEntity
  8
SANINDUSA
100
AcDbLine
 10
207.7357531099194
 20
229.3917648659256
 30
0.0
 11
207.7287715245101
 21
229.3917648659256
 31
0.0
  0
LINE
  5
1011
330
1F
100
AcDbEntity
  8
SANINDUSA
100
AcDbLine
 10
207.7424553882286
 20
229.2819850999975
 30
0.0
 11
207.7367517394542
 21
229.3908172018818
 31
0.0
  0
ARC
  5
1012
330
1F
100
AcDbEntity
  8
SANINDUSA
100
AcDbCircle
 10
207.7634266084585
 20
229.2830841550786
 30
0.0
 40
0.0210000000000001
100
AcDbArc
 50
183.0000000000383
 51
203.1807836300739
  0
ARC
  5
1013
330
1F
100
AcDbEntity
  8
SANINDUSA
100
AcDbCircle
 10
207.7491073948354
 20
229.2584826070282
 30
0.0
 40
0.016
100
AcDbArc
 50
110.3243062628238
 51
169.9999999999557
  0
LINE
  5
1014
330
1F
100
AcDbEntity
  8
SANINDUSA
100
AcDbLine
 10
207.7330560470262
 20
229.259591217748
 30
0.0
 11
207.7333504707872
 21
229.2612609778709
 31
0.0
  0
LINE
  5
1015
330
1F
100
AcDbEntity
  8
SANINDUSA
100
AcDbLine
 10
207.7246775699268
 20
229.2587648659256
 30
0.0
 11
207.7320712392732
 21
229.2587648659256
 31
0.0
  0
LINE
  5
1018
330
1F
100
AcDbEntity
  8
SANINDUSA
100
AcDbLine
 10
208.0664458087798
 20
229.2620506355985
 30
0.0
 11
207.9930793559486
 21
229.2599772277532
 31
0.0
  0
ARC
  5
1019
330
1F
100
AcDbEntity
  8
SANINDUSA
100
AcDbCircle
 10
208.0021404348473
 20
229.2427648659256
 30
0.0
 40
0.016
100
AcDbArc
 50
0.0
 51
90.0
  0
LINE
  5
101A
330
1F
100
AcDbEntity
  8
SANINDUSA
100
AcDbLine
 10
208.0181404348473
 20
229.2427648659256
 30
0.0
 11
208.0181404348473
 21
229.1947648659256
 31
0.0
  0
LINE
  5
101B
330
1F
100
AcDbEntity
  8
SANINDUSA
100
AcDbLine
 10
208.0191404348473
 20
229.1937648659256
 30
0.0
 11
208.1066351510239
 21
229.1937648659256
 31
0.0
  0
LINE
  5
101C
330
1F
100
AcDbEntity
  8
SANINDUSA
100
AcDbLine
 10
208.1076346630513
 20
229.1947961022374
 30
0.0
 11
208.1015093569572
 21
229.3907961022374
 31
0.0
  0
ARC
  5
101D
330
1F
100
AcDbEntity
  8
SANINDUSA
100
AcDbCircle
 10
208.0658525650624
 20
229.2830422544473
 30
0.0
 40
0.021
100
AcDbArc
 50
271.6188039918394
 51
356.9999999999617
  0
LINE
  5
101E
330
1F
100
AcDbEntity
  8
SANINDUSA
100
AcDbLine
 10
208.0925296299858
 20
229.3908172018818
 30
0.0
 11
208.0868237852923
 21
229.2819431993662
 31
0.0
  0
LINE
  5
101F
330
1F
100
AcDbEntity
  8
SANINDUSA
100
AcDbLine
 10
208.1005098449299
 20
229.3917648659256
 30
0.0
 11
208.0935282595206
 21
229.3917648659256
 31
0.0
  0
ARC
  5
1024
330
1F
100
AcDbEntity
  8
SANINDUSA
100
AcDbCircle
 10
208.0935282595206
 20
229.3907648659256
 30
0.0
 40
0.001
100
AcDbArc
 50
90.0
 51
176.9999999999617
  0
ARC
  5
1025
330
1F
100
AcDbEntity
  8
SANINDUSA
100
AcDbCircle
 10
208.1005098449299
 20
229.3907648659256
 30
0.0
 40
0.001
100
AcDbArc
 50
1.789999999928281
 51
90.0
  0
ARC
  5
1026
330
1F
100
AcDbEntity
  8
SANINDUSA
100
AcDbCircle
 10
208.1066351510239
 20
229.1947648659256
 30
0.0
 40
0.001
100
AcDbArc
 50
270.0
 51
1.789999999928281
  0
ARC
  5
1027
330
1F
100
AcDbEntity
  8
SANINDUSA
100
AcDbCircle
 10
208.0191404348473
 20
229.1947648659256
 30
0.0
 40
0.001
100
AcDbArc
 50
180.0
 51
270.0
  0
ARC
  5
102C
330
1F
100
AcDbEntity
  8
SANINDUSA
100
AcDbCircle
 10
207.9764658324823
 20
229.2555061162541
 30
0.0
 40
0.016
100
AcDbArc
 50
11.75176171501947
 51
11.78305261349924
  0
ARC
  5
102D
330
1F
100
AcDbEntity
  8
SANINDUSA
100
AcDbCircle
 10
207.9931076056494
 20
229.2589776268556
 30
0.0
 40
0.001
100
AcDbArc
 50
91.61880399183942
 51
191.7830526134992
  0
LINE
  5
1030
330
1F
100
AcDbEntity
  8
SANINDUSA
100
AcDbLine
 10
207.9921304598503
 20
229.2587648659256
 30
0.0
 11
208.0021404348473
 21
229.2587648659256
 31
0.0
  0
ARC
  5
1032
330
1F
100
AcDbEntity
  8
SANINDUSA
100
AcDbCircle
 10
207.7432027254096
 20
229.2744242154468
 30
0.0
 40
0.001
100
AcDbArc
 50
290.3243062628238
 51
23.18078363007388
  0
ARC
  5
1033
330
1F
100
AcDbEntity
  8
SANINDUSA
100
AcDbCircle
 10
207.7320712392732
 20
229.2597648659256
 30
0.0
 40
0.001
100
AcDbArc
 50
270.0
 51
349.9999999999557
  0
ARC
  5
1034
330
1F
100
AcDbEntity
  8
SANINDUSA
100
AcDbCircle
 10
207.7246775699268
 20
229.2597648659256
 30
0.0
 40
0.001
100
AcDbArc
 50
178.2100000000717
 51
270.0
  0
ARC
  5
1035
330
1F
100
AcDbEntity
  8
SANINDUSA
100
AcDbCircle
 10
207.7287715245101
 20
229.3907648659256
 30
0.0
 40
0.001
100
AcDbArc
 50
90.0
 51
178.2100000000717
  0
ARC
  5
1036
330
1F
100
AcDbEntity
  8
SANINDUSA
100
AcDbCircle
 10
207.7357531099194
 20
229.3907648659256
 30
0.0
 40
0.001
100
AcDbArc
 50
3.000000000038289
 51
90.0
  0
ENDSEC
  0
SECTION
  2
OBJECTS
  0
DICTIONARY
  5
C
330
0
100
AcDbDictionary
281
     1
  3
ACAD_COLOR
350
BA9
  3
ACAD_GROUP
350
D
  3
ACAD_LAYOUT
350
1A
  3
ACAD_MATERIAL
350
BA8
  3
ACAD_MLINESTYLE
350
17
  3
ACAD_PLOTSETTINGS
350
19
  3
ACAD_PLOTSTYLENAME
350
E
  3
ACAD_TABLESTYLE
350
BAA
  3
ACDBHEADERROUNDTRIPXREC
350
10AE
  3
AcDbVariableDictionary
350
3D
  3
ASE_INDEX_DICTIONARY
350
1020
  0
DICTIONARY
  5
100E
330
1F
100
AcDbDictionary
280
     1
281
     1
  3
ACAD_SORTENTS
360
100F
  0
DICTIONARY
  5
BA9
102
{ACAD_REACTORS
330
C
102
}
330
C
100
AcDbDictionary
281
     1
  0
DICTIONARY
  5
D
102
{ACAD_REACTORS
330
C
102
}
330
C
100
AcDbDictionary
281
     1
  0
DICTIONARY
  5
1A
102
{ACAD_REACTORS
330
C
102
}
330
C
100
AcDbDictionary
281
     1
  3
Layout1
350
1E
  3
Layout2
350
26
  3
Model
350
22
  0
DICTIONARY
  5
BA8
102
{ACAD_REACTORS
330
C
102
}
330
C
100
AcDbDictionary
281
     1
  0
DICTIONARY
  5
17
102
{ACAD_REACTORS
330
C
102
}
330
C
100
AcDbDictionary
281
     1
  3
Standard
350
18
  0
DICTIONARY
  5
19
102
{ACAD_REACTORS
330
C
102
}
330
C
100
AcDbDictionary
281
     1
  0
ACDBDICTIONARYWDFLT
  5
E
102
{ACAD_REACTORS
330
C
102
}
330
C
100
AcDbDictionary
281
     1
  3
Normal
350
F
100
AcDbDictionaryWithDefault
340
F
  0
DICTIONARY
  5
BAA
102
{ACAD_REACTORS
330
C
102
}
330
C
100
AcDbDictionary
281
     1
  3
Standard
350
BAB
  0
DICTIONARY
  5
10AE
102
{ACAD_REACTORS
330
C
102
}
330
C
100
AcDbDictionary
281
     1
  0
DICTIONARY
  5
3D
102
{ACAD_REACTORS
330
C
102
}
330
C
100
AcDbDictionary
281
     1
  3
CTABLESTYLE
350
1023
  3
DIMASSOC
350
3F
  3
HIDETEXT
350
3E
  3
PROJECTNAME
350
10A6
  0
DICTIONARY
  5
1020
102
{ACAD_REACTORS
330
C
102
}
330
C
100
AcDbDictionary
281
     1
  3
ASEBlockHierarchyIndexRecord
350
1021
1001
DCO15
1040
1534223760.328
  0
SORTENTSTABLE
  5
100F
102
{ACAD_REACTORS
330
100E
102
}
330
100E
100
AcDbSortentsTable
330
1F
331
EEF
  5
EEF
331
E51
  5
E51
331
EA8
  5
EA8
331
1024
  5
F5B
331
F56
  5
F68
331
FC5
  5
1002
331
E59
  5
E59
331
102C
  5
F45
331
EC0
  5
EC0
331
F5E
  5
F7A
331
FCD
  5
1006
331
F66
  5
F8C
331
1034
  5
F9A
331
FF5
  5
1018
331
E61
  5
E61
331
E2A
  5
E2A
331
EC8
  5
EC8
331
F6E
  5
F9C
331
DEB
  5
DEB
331
E32
  5
E32
331
F37
  5
F3D
331
E3A
  5
E3A
331
100D
  5
F99
331
E79
  5
E79
331
E42
  5
E42
331
F3F
  5
F49
331
F47
  5
F5C
331
1015
  5
F7B
331
101D
  5
F55
331
E03
  5
E03
331
E4A
  5
E4A
331
EA1
  5
EA1
331
EF0
  5
EF0
331
E52
  5
E52
331
EA9
  5
EA9
331
1025
  5
F60
331
FA6
  5
FEE
331
E5A
  5
E5A
331
102D
  5
F46
331
F57
  5
F69
331
F5F
  5
F80
331
E23
  5
E23
331
EC1
  5
EC1
331
F67
  5
F95
331
1035
  5
F84
331
EC9
  5
EC9
331
E62
  5
E62
331
DE4
  5
DE4
331
E72
  5
E72
331
E33
  5
E33
331
F38
  5
F3E
331
E7A
  5
E7A
331
DF4
  5
DF4
331
E3B
  5
E3B
331
ED9
  5
ED9
331
F40
  5
F4A
331
E43
  5
E43
331
F48
  5
F5D
331
E4B
  5
E4B
331
101E
  5
F57
331
E04
  5
E04
331
E53
  5
E53
331
1026
  5
F5F
331
F58
  5
F6A
331
FC7
  5
1004
331
E14
  5
E14
331
E5B
  5
E5B
331
EC2
  5
EC2
331
F60
  5
F81
331
1036
  5
F88
331
FF7
  5
101A
331
F19
  5
F19
331
E63
  5
E63
331
DE5
  5
DE5
331
E2C
  5
E2C
331
ECA
  5
ECA
331
F68
  5
F96
331
E34
  5
E34
331
F31
  5
F31
331
F39
  5
F3F
331
E3C
  5
E3C
331
DF5
  5
DF5
331
E7B
  5
E7B
331
F41
  5
F4B
331
E44
  5
E44
331
E9B
  5
E9B
331
EA3
  5
EA3
331
F49
  5
F61
331
101F
  5
F5A
331
E05
  5
E05
331
E4C
  5
E4C
331
EF2
  5
EF2
331
E54
  5
E54
331
1027
  5
F36
331
E0D
  5
E0D
331
F59
  5
F6D
331
E5C
  5
E5C
331
EBB
  5
EBB
331
F61
  5
F82
331
E25
  5
E25
331
EC3
  5
EC3
331
F1A
  5
F1A
331
ECB
  5
ECB
331
F69
  5
F97
331
E64
  5
E64
331
DE6
  5
DE6
331
F71
  5
F9D
331
E74
  5
E74
331
E35
  5
E35
331
DEE
  5
DEE
331
F32
  5
F33
331
F3A
  5
F40
331
E7C
  5
E7C
331
E3D
  5
E3D
331
EDB
  5
EDB
331
E45
  5
E45
331
F42
  5
F4C
331
1010
  5
F83
331
1018
  5
F4D
331
F4A
  5
F62
331
E4D
  5
E4D
331
EEB
  5
EEB
331
E06
  5
E06
331
E55
  5
E55
331
E0E
  5
E0E
331
EBC
  5
EBC
331
F5A
  5
F6E
331
E5D
  5
E5D
331
EC4
  5
EC4
331
E26
  5
E26
331
F62
  5
F85
331
1030
  5
F3B
331
FF9
  5
101C
331
F6A
  5
F98
331
E65
  5
E65
331
F1B
  5
F1B
331
E2E
  5
E2E
331
F72
  5
F9E
331
E36
  5
E36
331
1009
  5
1033
331
F33
  5
F34
331
F7A
  5
FA3
331
EDC
  5
EDC
331
F3B
  5
F43
331
E3E
  5
E3E
331
DF7
  5
DF7
331
E7D
  5
E7D
331
F43
  5
F54
331
F9A
  5
FC7
331
E46
  5
E46
331
EE4
  5
EE4
331
DFF
  5
DFF
331
1011
  5
F87
331
1019
  5
F38
331
F4B
  5
F63
331
E07
  5
E07
331
E4E
  5
E4E
331
EEC
  5
EEC
331
EF4
  5
EF4
331
E56
  5
E56
331
F5B
  5
F71
331
F14
  5
F14
331
E5E
  5
E5E
331
EBD
  5
EBD
331
EC5
  5
EC5
331
F63
  5
F86
331
E66
  5
E66
331
1002
  5
1026
331
F34
  5
F37
331
E76
  5
E76
331
DF0
  5
DF0
331
E37
  5
E37
331
ED5
  5
ED5
331
F3C
  5
F44
331
E3F
  5
E3F
331
EE5
  5
EE5
331
E47
  5
E47
331
E9E
  5
E9E
331
F44
  5
F56
331
1012
  5
F8A
331
101A
  5
F35
331
E00
  5
E00
331
F4C
  5
F64
331
EED
  5
EED
331
E4F
  5
E4F
331
EA6
  5
EA6
331
E08
  5
E08
331
F54
  5
F66
331
E57
  5
E57
331
E10
  5
E10
331
E5F
  5
E5F
331
EBE
  5
EBE
331
E20
  5
E20
331
F5C
  5
F76
331
EC6
  5
EC6
331
F64
  5
F89
331
1032
  5
F75
331
E28
  5
E28
331
E67
  5
E67
331
DE9
  5
DE9
331
E30
  5
E30
331
F35
  5
F39
331
E38
  5
E38
331
E77
  5
E77
331
E40
  5
E40
331
F3D
  5
F47
331
F45
  5
F58
331
F9C
  5
FCD
331
1013
  5
F72
331
E01
  5
E01
331
E48
  5
E48
331
101B
  5
F32
331
E50
  5
E50
331
EA7
  5
EA7
331
E58
  5
E58
331
F55
  5
F67
331
F5D
  5
F78
331
F16
  5
F16
331
EBF
  5
EBF
331
EC7
  5
EC7
331
F65
  5
F8B
331
1033
  5
F7F
331
E60
  5
E60
331
F36
  5
F3C
331
E78
  5
E78
331
100C
  5
1036
331
E39
  5
E39
331
F3E
  5
F48
331
E41
  5
E41
331
EE7
  5
EE7
331
F46
  5
F59
331
1014
  5
F77
331
E49
  5
E49
331
101C
  5
F5E
331
E02
  5
E02
  0
LAYOUT
  5
1E
102
{ACAD_XDICTIONARY
360
10AF
102
}
102
{ACAD_REACTORS
330
1A
102
}
330
1A
100
AcDbPlotSettings
  1

  2
Ploter HP500
  4

  6

 40
0.0
 41
0.0
 42
0.0
 43
0.0
 44
0.0
 45
0.0
 46
0.0
 47
0.0
 48
0.0
 49
0.0
140
0.0
141
0.0
142
1.0
143
1.0
 70
   688
 72
     0
 73
     0
 74
     5
  7
monochrome.ctb
 75
    16
147
1.0
148
0.0
149
0.0
100
AcDbLayout
  1
Layout1
 70
     1
 71
     1
 10
0.0
 20
0.0
 11
420.0
 21
297.0
 12
0.0
 22
0.0
 32
0.0
 14
1.000000000000000E+20
 24
1.000000000000000E+20
 34
1.000000000000000E+20
 15
-1.000000000000000E+20
 25
-1.000000000000000E+20
 35
-1.000000000000000E+20
146
0.0
 13
0.0
 23
0.0
 33
0.0
 16
1.0
 26
0.0
 36
0.0
 17
0.0
 27
1.0
 37
0.0
 76
     0
330
1B
  0
LAYOUT
  5
26
102
{ACAD_XDICTIONARY
360
10B3
102
}
102
{ACAD_REACTORS
330
1A
102
}
330
1A
100
AcDbPlotSettings
  1

  2
Ploter HP500
  4

  6

 40
0.0
 41
0.0
 42
0.0
 43
0.0
 44
0.0
 45
0.0
 46
0.0
 47
0.0
 48
0.0
 49
0.0
140
0.0
141
0.0
142
1.0
143
1.0
 70
   688
 72
     0
 73
     0
 74
     5
  7
monochrome.ctb
 75
    16
147
1.0
148
0.0
149
0.0
100
AcDbLayout
  1
Layout2
 70
     1
 71
     2
 10
0.0
 20
0.0
 11
12.0
 21
9.0
 12
0.0
 22
0.0
 32
0.0
 14
0.0
 24
0.0
 34
0.0
 15
0.0
 25
0.0
 35
0.0
146
0.0
 13
0.0
 23
0.0
 33
0.0
 16
1.0
 26
0.0
 36
0.0
 17
0.0
 27
1.0
 37
0.0
 76
     0
330
23
  0
LAYOUT
  5
22
102
{ACAD_XDICTIONARY
360
10B1
102
}
102
{ACAD_REACTORS
330
1A
102
}
330
1A
100
AcDbPlotSettings
  1

  2
Ploter HP500
  4
User268
  6

 40
4.995333194732666
 41
16.97565841674804
 42
4.995330810546875
 43
16.97567749023437
 44
209.9733276367187
 45
296.9259948730469
 46
0.0
 47
0.0
 48
0.0
 49
0.0
140
0.0
141
0.0
142
1.0
143
1.0
 70
 11952
 72
     1
 73
     1
 74
     0
  7

 75
     0
147
1.0
148
-427.5957866592534
149
7.362384574453926
100
AcDbLayout
  1
Model
 70
     1
 71
     0
 10
0.0
 20
0.0
 11
12.0
 21
9.0
 12
0.0
 22
0.0
 32
0.0
 14
0.0
 24
0.0
 34
0.0
 15
0.0
 25
0.0
 35
0.0
146
0.0
 13
0.0
 23
0.0
 33
0.0
 16
1.0
 26
0.0
 36
0.0
 17
0.0
 27
1.0
 37
0.0
 76
     0
330
1F
  0
MLINESTYLE
  5
18
102
{ACAD_REACTORS
330
17
102
}
330
17
100
AcDbMlineStyle
  2
STANDARD
 70
     0
  3

 62
   256
 51
90.0
 52
90.0
 71
     2
 49
0.5
 62
   256
  6
BYLAYER
 49
-0.5
 62
   256
  6
BYLAYER
  0
ACDBPLACEHOLDER
  5
F
102
{ACAD_REACTORS
330
E
102
}
330
E
  0
TABLESTYLE
  5
BAB
102
{ACAD_REACTORS
330
BAA
102
}
330
BAA
100
AcDbTableStyle
  3
Standard
 70
     0
 71
     0
 40
1.5
 41
1.5
280
     0
281
     0
  7
Standard
140
4.5
170
     2
 62
     0
 63
     7
283
     0
274
    -2
284
     1
 64
     0
275
    -2
285
     1
 65
     0
276
    -2
286
     1
 66
     0
277
    -2
287
     1
 67
     0
278
    -2
288
     1
 68
     0
279
    -2
289
     1
 69
     0
  7
Standard
140
6.0
170
     5
 62
     0
 63
     7
283
     0
274
    -2
284
     1
 64
     0
275
    -2
285
     1
 65
     0
276
    -2
286
     1
 66
     0
277
    -2
287
     1
 67
     0
278
    -2
288
     1
 68
     0
279
    -2
289
     1
 69
     0
  7
Standard
140
4.5
170
     5
 62
     0
 63
     7
283
     0
274
    -2
284
     1
 64
     0
275
    -2
285
     1
 65
     0
276
    -2
286
     1
 66
     0
277
    -2
287
     1
 67
     0
278
    -2
288
     1
 68
     0
279
    -2
289
     1
 69
     0
  0
DICTIONARYVAR
  5
1023
102
{ACAD_REACTORS
330
3D
102
}
330
3D
100
DictionaryVariables
280
     0
  1
STANDARD
  0
DICTIONARYVAR
  5
3F
102
{ACAD_REACTORS
330
3D
102
}
330
3D
100
DictionaryVariables
280
     0
  1
2
  0
DICTIONARYVAR
  5
3E
102
{ACAD_REACTORS
330
3D
102
}
330
3D
100
DictionaryVariables
280
     0
  1
1
  0
DICTIONARYVAR
  5
10A6
102
{ACAD_REACTORS
330
3D
102
}
330
3D
100
DictionaryVariables
280
     0
  1

  0
XRECORD
  5
1021
102
{ACAD_REACTORS
330
1020
102
}
330
1020
100
AcDbXrecord
280
     1
  0
DICTIONARY
  5
10AF
330
1E
100
AcDbDictionary
280
     1
281
     1
  3
ACAD_XREC_ROUNDTRIP
360
10B0
  0
DICTIONARY
  5
10B3
330
26
100
AcDbDictionary
280
     1
281
     1
  3
ACAD_XREC_ROUNDTRIP
360
10B4
  0
DICTIONARY
  5
10B1
330
22
100
AcDbDictionary
280
     1
281
     1
  3
ACAD_XREC_ROUNDTRIP
360
10B2
  0
XRECORD
  5
10B0
102
{ACAD_REACTORS
330
10AF
102
}
330
10AF
100
AcDbXrecord
280
     1
102
SHADEPLOT
 70
     0
102
SHADEPLOTRESLEVEL
 70
     2
102
SHADEPLOTCUSTOMDPI
 70
   300
  0
XRECORD
  5
10B4
102
{ACAD_REACTORS
330
10B3
102
}
330
10B3
100
AcDbXrecord
280
     1
102
SHADEPLOT
 70
     0
102
SHADEPLOTRESLEVEL
 70
     2
102
SHADEPLOTCUSTOMDPI
 70
   300
  0
XRECORD
  5
10B2
102
{ACAD_REACTORS
330
10B1
102
}
330
10B1
100
AcDbXrecord
280
     1
102
SHADEPLOT
 70
     0
102
SHADEPLOTRESLEVEL
 70
     2
102
SHADEPLOTCUSTOMDPI
 70
   300
  0
ENDSEC
  0
EOF
